Drowning Pool - Tear Away Chords & Tabs

 

Tear Away Chords & Tabs

Drowning Pool Chords & Tabs

Version: 7 Type: Tab 0 ratings
1 star 2 stars 3 stars 4 stars 5 stars
comments

Tear Away Tab

Band: Drowning Pool
Album: Sinner
Song: Tear Away
Tabbed by: Sigfus Thor Magnusson
==Key==

  p - pull off
  h - hammer on
  / - slide
  ^ - half step bend
  r - release
  ~ - vibrate
(#) - optional or hidden note

This is a real finger finger song!

Tuning is in dropped-c
(Jurgen, just play it in D-drop)

Intro

  
D :-------------------------------------------------------| 
A :-------------------------------------------------------| 
F :---88888/7---------------------------------------------| 
C :-------------5--------7/8-88/5---5--------7/8-88/7-----| 
G :---66666/5-0-7-0------5/6-66/0-7-0--------5/6-66/5-----| 
C :-----------0---0-0000----------0---0-0000--------------| 
  :                                                       
  :                                                  
D :-------------------------------------------------------| 
A :-------------------------------------------------------| 
F :-------------------------------------------------------| 
C :-----7--------7/8-88/7---7-----BREAK!------------------| 
G :---0-5-0------5/6-66/5-0-5-0---------------------------| 
C :---0---0-0000----------0---0---------------------------| 

   (Wah-wah pedal)    
   This is the piece after he screams "BREAK!"
   (x2)
D :-------------------------------------------------------------|
A :-------------------------------------------------------------|
F :-------14-14--14-14--14-14-14-14/12--12-12-12/11--11-11------|
C :-------------------------------------------------------------|
G :---0-0-12-12--12-12--12-12-12-12/10--10-10-10/9---9--9-------|
C :---0-0-------------------------------------------------------|
  :                                                             
  :                                                        
D :-----------------| 
A :-----------------|
F :---7-7--7-7/5-5--|
C :-----------------| 
G :---5-5--5-5/3-3--|
C :-----------------|

  
Verse  
   (palm mute the heavy piece)
   (x2)   
D :--------------------------------------------------------| 
A :----------------------88888/7---------------------------| 
F :----------------------------------------------88888/7---| 
C :--0-0--0-0--0-0--0-0--55555/4--0-0--0-0--0-0------------| 
G :--0-0--0-0--0-0--0-0-----------0-0--0-0--0-0--66666/5---| 
C :--0-0--0-0--0-0--0-0-----------0-0--0-0--0-0------------| 

                                      second time (just before the Chorus)
D :----------------------------------------------|---------------------| 
A :-----------------88888/7----------------------|---------------------| 
F :------------------------------------7777777/--|---------------------| 
C :--0-0--0-0--0-0--55555/4--0-0--0-0------------|--0-0--0-0--0-0-8/0--| 
G :--0-0--0-0--0-0-----------0-0--0-0--5555555/--|--0-0--0-0--0-0-8/0--| 
C :--0-0--0-0--0-0-----------0-0--0-0------------|--0-0--0-0--0-0-8/0--| 


Chorus
  
  (x3 and then the intro piece again)
D :-----------------------------------------------| 
A :-----------------------------------------------| 
F :-----------------------------------------------| 
C :-----------------------------------------------| 
G :--0--0-5-5-0--0-0-5-5-0-8--8-8--8-8-5-5-5-5-5--| 
C :--0--0-0-0-0--0-0-0-0-0-8--8-8--8-8-5-5-5-5-5--| 
[ Tab from: http://www.guitartabs.cc/tabs/d/drowning_pool/tear_away_tab_ver_7.html ]
  and then the third time
D :-------------------------------------------------------------|
A :-------------------------------------------------------------|
F :-------14-14--14-14--14-14-14-14/12--12-12-12/11--11-11------|
C :-------------------------------------------------------------|
G :---0-0-12-12--12-12--12-12-12-12/10--10-10-10/9---9--9-------|
C :---0-0-------------------------------------------------------|
  :                                                             
  :                                                        
D :-----------------| 
A :-----------------|
F :---7-7--7-7/5-5--|
C :-----------------| 
G :---5-5--5-5/3-3--|
C :-----------------|

Second Verse  
   (palm mute the heavy piece)
   (x2)   
D :--------------------------------------------------------| 
A :----------------------88888/7---------------------------| 
F :----------------------------------------------88888/7---| 
C :--0-0--0-0--0-0--0-0--55555/4--0-0--0-0--0-0------------| 
G :--0-0--0-0--0-0--0-0-----------0-0--0-0--0-0--66666/5---| 
C :--0-0--0-0--0-0--0-0-----------0-0--0-0--0-0------------| 

                                      second time (just before the Chorus)
D :----------------------------------------------|---------------| 
A :-----------------88888/7----------------------|---------------| 
F :------------------------------------7777777/--|---------------| 
C :--0-0--0-0--0-0--55555/4--0-0--0-0------------|----------8/0--| 
G :--0-0--0-0--0-0-----------0-0--0-0--5555555/--|----------8/0--| 
C :--0-0--0-0--0-0-----------0-0--0-0------------|----0-0---8/0--|

Chorus
  
  (x4)
D :-----------------------------------------------| 
A :-----------------------------------------------| 
F :-----------------------------------------------| 
C :-----------------------------------------------| 
G :--0--0-5-5-0--0-0-5-5-0-8--8-8--8-8-5-5-5-5-5--| 
C :--0--0-0-0-0--0-0-0-0-0-8--8-8--8-8-5-5-5-5-5--|

Interlude

D :----------------------------------| 
A :----------------------------------| 
F :----------------------------------| 
C :--1-0-1-0-1-0-------1-0-1-0-1-0---| 
G :--1-0-1-0-1-0-------1-0-1-0-1-0---| 
C :--1-0-1-0-1-0-------1-0-1-0-1-0---| 



  Solo (with wah-wah pedal)
  
D :---0/17----17-17-17-17-15--15-15--15-15-18-18-18-17-18-17-----| 
A :--------------------------------------------------------------| 
F :--------------------------------------------------------------| 
C :--------------------------------------------------------------| 
G :--------------------------------------------------------------| 
C :--------------------------------------------------------------|

D :---13--12--10---8-8-8-8-8-11-11-11-10/0-----| 
A :--------------------------------------------| 
F :--------------------------------------------| 
C :--------------------------------------------| 
G :--------------------------------------------| 
C :--------------------------------------------| 

D :-------20^-20^-20^-20--17p20-17-20-17p20h17--15-15-15^-15/--| 
A :------------------------------------------------------------| 
F :------------------------------------------------------------| 
C :------------------------------------------------------------| 
G :------------------------------------------------------------| 
C :---0--------------------------------------------------------|

D :-------------------------------------------------------------------| 
A :---13^--13^13^--13-13-13-13-13-13-13-10-10-10-10-10-13-13-13-13/0--| 
F :-------------------------------------------------------------------| 
C :-------------------------------------------------------------------| 
G :-------------------------------------------------------------------| 
C :-------------------------------------------------------------------| 

Chorus
  
  (x4)
D :-----------------------------------------------| 
A :-----------------------------------------------| 
F :-----------------------------------------------| 
C :-----------------------------------------------| 
G :--0--0-5-5-0--0-0-5-5-0-8--8-8--8-8-5-5-5-5-5--| 
C :--0--0-0-0-0--0-0-0-0-0-8--8-8--8-8-5-5-5-5-5--|

Outro

D :-------------------------------------| 
A :-------------------------------------| 
F :-------------------------------------| 
C :--------7-----7--------3----3/8--8---| 
G :------5-----5---5/1--1----1----6-----| 
C :---0---------------------------------|
Comments