Drowning Pool - Tear Away Chords & Tabs

 

Tear Away Chords & Tabs

Drowning Pool Chords & Tabs

Version: 2 Type: Tab 0 ratings
1 star 2 stars 3 stars 4 stars 5 stars
comments

Tear Away Tab

"Tear Away" by: Drowning Pool

Tabbed by: Rob Marston
E-mail: rob@leftatom.com
Tuning: Drop D (EBGDAD)
Effects: Phase, Wah, and Echo
Settings: Plenty of distortion



This is in no way 100% correct, but I put alot of work into it. I hope you enjoy it. If you choose not to play the song my way, I hope you can use this as a tool to get you started on your own version. Thanks for choosing this tab, keep on rockin'!




Intro: (Phase)

E-|----------------------------------------------------------|
B-|------------------------------------(------muted------)---|
G-|----------------------------------------------------------|
D-|------------------------------------10-11-10--------------|
A-|------------------------------------10-11-10--------------|
D-|---11-11-11-11-11-11-11-11-11s10*---10-11-10---0-0-0-0----| 

Solo 1: (Wah)

E-|---------------------------------------------------------------|
B-|---------------------------------------------------------------|
G-|---6-6---6-6---6-6---6-6---6-6-6-6---6s5---5-5---3-3-3-3-3-3---|
D-|---0-0---0-0---0-0---0-0---0-0-0-0---0-0---0-0---0-0-0-0-0-0---|
A-|---4-4---4-4---4-4---4-4---4-4-4-4---4s3---3-3---1-1-1-1-1-1---|
D-|---------------------------------------------------------------|

Verse: 

E-|-------------------------------------------------------|
B-|---(----------muted-----------)------------------------|
G-|---------------------------------6-6-6-6-6-6-6-6-6s5---|
D-|---0-0---0-0---0-0---0-0-0-0-0---0-0-0-0-0-0-0-0-0-0---|
A-|---0-0---0-0---0-0---0-0-0-0-0---4-4-4-4-4-4-4-4-4s3---|
D-|---0-0---0-0---0-0---0-0-0-0-0-------------------------|

E-|-------------------------------------------|
B-|---(----muted----)-------------------------|
G-|---------------------6-6-6-6-6-6-6-6-6s5---|
D-|---0-0---0-0---0-0---0-0-0-0-0-0-0-0-0-0---|
A-|---0-0---0-0---0-0---4-4-4-4-4-4-4-4-4s3---|
D-|---0-0---0-0---0-0-------------------------|

E-|-------------------------------------------|
B-|---(----muted----)-------------------------|
G-|---------------------6-6-6-6-6-6-6-6-6s5---|
D-|---0-0---0-0---0-0---0-0-0-0-0-0-0-0-0-0---|
A-|---0-0---0-0---0-0---4-4-4-4-4-4-4-4-4s3---|
D-|---0-0---0-0---0-0-------------------------|

E-|-----------------------------------------|
B-|---(-muted-)-----------------------------|
G-|---------------6-6-6-6-6-6-6-6-6-6-6-6---|
D-|---0-0---0-0---0-0-0-0-0-0-0-0-0-0-0-0---|
A-|---0-0---0-0---4-4-4-4-4-4-4-4-4-4-4-4---|
D-|---0-0---0-0-----------------------------|

Chorus: 

Use this chord progression, listen to the song to help you with rythem.
[ Tab from: http://www.guitartabs.cc/tabs/d/drowning_pool/tear_away_tab_ver_2.html ]
E-|------------------------------------------------|
B-|------------------------------------------------|
G-|------------------------------------------------|
D-|---10-------------11-------------10-------------|
A-|---10---(strum)---11---(strum)---10---(strum)---|
D-|---10-------------11-------------10-------------|

Guitar 2 plays something like this (over the last line of the chorus) 

E-|---------------------------------------------------------------|
B-|---------------------------------------------------------------|
G-|---6-6---6-6---6-6---6-6---6-6-6-6---6s5---5-5---3-3-3-3-3-3---|
D-|---0-0---0-0---0-0---0-0---0-0-0-0---0-0---0-0---0-0-0-0-0-0---|
A-|---4-4---4-4---4-4---4-4---4-4-4-4---4s3---3-3---1-1-1-1-1-1---|
D-|---------------------------------------------------------------|     
Bridge: 

E-|-------------------------------------------|
B-|---(---------------muted----------------)--|
G-|-------------------------------------------|
D-|---11-10-11-10-11-10---11-10-11-10-11-10---|
A-|---11-10-11-10-11-10---11-10-11-10-11-10---|
D-|---11-10-11-10-11-10---11-10-11-10-11-10---| 

Solo 2: (Echo and Wah) 

E-|---------------------------------------------------|
B-|---------------------------------------------------|
G-|---0s12~---10~---13~---12h13p12-8-7-5---3~---6-5---|
D-|---------------------------------------------------|
A-|---------------------------------------------------|
D-|---------------------------------------------------| 

E-|---------------------------------------------------|
B-|---13h14p13---13h14p13---13h14p13~-----------------|
G-|---------------------------------------------------|
D-|---------------------------------------------------|
A-|---------------------------------------------------|
D-|---------------------------------------------------| 

E-|------------------------------------------------|
B-|------------------------------------------------|
G-|---12-13-12h13p12~------------------------------|
D-|----------------------12~-13h12p13~-------------|
A-|--------------------------------------13-12s0---|
D-|------------------------------------------------| 

Outro: (Echo)

E-|------------------------------------------------------------------|
B-|------------------------------------------------------------------|
G-|----------------------------------------------s---------5---------|
D-|---------10~----10------------s-------6---6---s-----5-----5---5---|
A-|-------------------10----10---s---4-4---4-----s---3---3-----3-----|
D-|---10-10-----10-------10------s-----------------------------------|

E-|-------------------------------------------------------------|
B-|-------------------------------------------------------------|
G-|----------------------------------------------s---------5~---|
D-|---------10~----10------------s-------6---6---s-----5--------|
A-|-------------------10----10---s---4-4---4-----s---3---3------|
D-|---10-10-----10-------10------s------------------------------|
    



















Comments