Drowning Pool - Tear Away Chords & Tabs

 

Tear Away Chords & Tabs

Drowning Pool Chords & Tabs

Version: 3 Type: Bass Tab 0 ratings
1 star 2 stars 3 stars 4 stars 5 stars
comments

Tear Away Bass Tab

   
Band: Drowning Pool
Song: Tear Away
CD: Sinner
Tabbed by: Nick
Tuning: B,E,A,D,G (standard)

Beginning: no bass

Intro:
G/--------------------------------------|
D/--------------------------------------|
A/--------------------------------------|
E/--------------------------------------|
B/--1-1----1-1----1-1----1-1----1-1-1---|

[ Tab from: http://www.guitartabs.cc/tabs/d/drowning_pool/tear_away_btab_ver_3.html ]
Verse:
G/---------------------------------------|
D/---------------------------------------|
A/---------------------------------------|
E/---------------------------------------|
B/--1-1----1-1----1-1----1-1----1-2-2----|


Chorus:
G/---------------------------------------------------------|
D/---------------------------------------------------------|
A/---------------------------------------------------------|
E/------------------------4--4-4--4-4--1--1---1--1---1-----|
B/-1-1--1---1--1---1--1------------------------------------|


Break: right before the guitar solo.
G/----------------------|
D/----------------------|
A/----------------------|
E/----------------------|
B/--2-1---2-1---2-1-----| 2x


Guitar solo: (same as chorus)


email me for anything bout this tab, superman_5000@hotmail.com, thanx
Comments