Drowning Pool - Let The Bodies Hit The Floor Chords & Tabs

 

Drowning Pool Chords & Tabs

Version: 2 Type: Tab 0 ratings
1 star 2 stars 3 stars 4 stars 5 stars
comments

Let The Bodies Hit The Floor Tab

Drop D Tuning

Let the bodies hit the floor 
Let the bodies hit the floor 
Let the bodies hit the floor 
Let the bodies hit the......

....floor!
Intro, Part 1 - Played 4 Times
E -------------------------------------------------------|
B -------------------------------------------------------|
G -------------------------------------------------------|
D ---10-10-10--4-4-4-------------------------------------|
A ---10-10-10--4-4-4-------------------------------------|
D ---10-10-10--4-4-4-------------------------------------|

Intro, Part 2 - Played 4 Times
E -------------------------------------------------------|
B ---10-10-10--14-14-14--10-10-10--15-15-15--------------|
G ---10-10-10--13-13-13--10-10-10--14-14-14--------------|
D ---10-10-10--10-10-10--10-10-10--10-10-10--------------|
A ---10-10-10--10-10-10--10-10-10--10-10-10--------------|
D ---10-10-10--10-10-10--10-10-10--10-10-10--------------|

Verse (Verse is mostly Bass. A little guitar.)
E -------------------------------------------------------|
B -------------------------------------------------------|
G -------------------------------------------------------|
D ---10-10-----------------------------------------------|
A ---10-10-----------------------------------------------|
D ---10-10-----------------------------------------------|

Beaten why for 
Can't take much more 

Here we go...Here we go...Here we go 

[ Tab from: http://www.guitartabs.cc/tabs/d/drowning_pool/let_the_bodies_hit_the_floor_tab_ver_2.html ]
Played 4 Times
E -------------------------------------------------------|
B ---10-10-10--14-14-14----------------------------------|
G ---10-10-10--13-13-13----------------------------------|
D ---10-10-10--10-10-10----------------------------------|
A ---10-10-10--10-10-10----------------------------------|
D ---10-10-10--10-10-10----------------------------------|
One - Nothing wrong with me 
Two - Nothing wrong with me 
Three - Nothing wrong with me 
Four - Nothing wrong with me 


Played 4 Times
E -------------------------------------------------------|
B ---10-10-10--14-14-14----------------------------------|
G ---10-10-10--13-13-13----------------------------------|
D ---10-10-10--10-10-10----------------------------------|
A ---10-10-10--10-10-10----------------------------------|
D ---10-10-10--10-10-10----------------------------------|
One - Something's got to give 
Two - Something's got to give 
Three - Something's got to give 
Now


E -------------------------------------------------------|
B -------------------------------------------------------|
G -------------------------------------------------------|
D ---10-10-10--4-4-4-------------------------------------|
A ---10-10-10--4-4-4-------------------------------------|
D ---10-10-10--4-4-4-------------------------------------|
Let the bodies hit the floor 
Let the bodies hit the floor 
Let the bodies hit the floor 

Let the bodies hit the floor 
Let the bodies hit the floor 
Let the bodies hit the floor 

Push me again 
This is the end 

Here we go...Here we go...Here we go 
Comments