Drowning Pool - Killin Me Chords & Tabs

 

Killin Me Chords & Tabs

Drowning Pool Chords & Tabs

Version: 1 Type: Tab 0 ratings
1 star 2 stars 3 stars 4 stars 5 stars
comments

Killin Me Tab

   
Band- Drowning Pool
Song- Killin Me

Tuning: Drop B (B F# B E G# C#)



Intro
C#[-12-0-0-12-0-0-12-0-0-12-0-0-12-0-0-0--13-0-0-13-0-0-13-0-0-13-0-0-13-0-0-0-]
G#[----------------------------------------------------------------------------]
E [----------------------------------------------------------------------------]
B [----------------------------------------------------------------------------]
F#[----------------------------------------------------------------------------]
B [----------------------------------------------------------------------------]

C#[-10-0-0-10-0-0-10-0-0-10-0-0-10-0-0-0--13-0-0-13-0-0-13-0-13/15-15-15--x\-----]
G#[-----------------------------------------------------------------------x\-----]
E [-----------------------------------------------------------------------x\-----]
B [-----------------------------------------------------------------------x\-----]
F#[-----------------------------------------------------------------------x\-----]
B [-----------------------------------------------------------------------x\-----]

C#[------------------------------------]
G#[-----5~~~--------------5~~~---------]
E [-----4~~~--------------4~~~---------]
B [------------------------------------]
F#[--2~~~~~~--2/3/5----2~~~~~~---0-0-3-]
B [--2~~~~~~--2/3/5----2~~~~~~---0-0-3-]  x2


C#[------------------------------------]
G#[-----5~~~--5/6/7-------5~~~---3-3-6-]
E [-----4~~~--4/5/6-------4~~~---2-2-5-]
B [--2~~~~~~--2/3/5----2~~~~~~---0-0-3-]
F#[--2~~~~~~--2/3/5----2~~~~~~---0-0-3-]
B [--2~~~~~~--2/3/5----2~~~~~~---0-0-3-]  x2

C#[----------------------------------------------]
G#[-----5~~~~~~~~--------------5~~~~~~~~---------]
E [-----4~~~~~~~~--------------4~~~~~~~~---------]
B [----------------------------------------------]
F#[--2~~~~~~~~~~~--0-3-3----2~~~~~~~~~~~---3-3-5-]
B [--2~~~~~~~~~~~--0-3-3----2~~~~~~~~~~~---3-3-5-]  x2


C#[---------------------|----------|----------------------------]
G#[---------------------|----------|----------------------------]
E [---------------------|----------|----------------------------]
B [---------------------|----------|----------------------------]
F#[--3-2-0-0----3-2-0-0-|--3-2-0---|--3/5-5-5-------------------]
B [--3-2-0-0----3-2-0-0-|--3-2-0---|--3/5-5-5-------------------]
     . . . .    . . . .    . . .                                              
                       Times 3


C#[------------------------------------------------------------------]
G#[--5-5-5-5-5-5-5-5-6-6-6-8-8-8-8-8-3-3-3-3-3-3-3-3-6-6-6-3-3-3-6-6-]
E [--4-4-4-4-4-4-4-4-5-5-5-7-7-7-7-7-2-2-2-2-2-2-2-2-5-5-5-2-2-2-5-5-]
B [--2-2-2-2-2-2-2-2-3-3-3-5-5-5-5-5-0-0-0-0-0-0-0-0-3-3-3-0-0-0-3-3-] 
F#[--2-2-2-2-2-2-2-2-3-3-3-5-5-5-5-5-0-0-0-0-0-0-0-0-3-3-3-0-0-0-3-3-] 
B [--2-2-2-2-2-2-2-2-3-3-3-5-5-5-5-5-0-0-0-0-0-0-0-0-3-3-3-0-0-0-3-3-] x2   
[ Tab from: http://www.guitartabs.cc/tabs/d/drowning_pool/killin_me_tab.html ]
C#[------------------------------------]
G#[-----5~~~--5/6/7-------5~~~---3-3-6-]
E [-----4~~~--4/5/6-------4~~~---2-2-5-]
B [--2~~~~~~--2/3/5----2~~~~~~---0-0-3-]
F#[--2~~~~~~--2/3/5----2~~~~~~---0-0-3-]
B [--2~~~~~~--2/3/5----2~~~~~~---0-0-3-]  x2  

C#[----------------------------------------------]
G#[-----5~~~~~~~~--------------5~~~~~~~~---------]
E [-----4~~~~~~~~--------------4~~~~~~~~---------]
B [----------------------------------------------]
F#[--2~~~~~~~~~~~--0-3-3----2~~~~~~~~~~~---3-3-5-]
B [--2~~~~~~~~~~~--0-3-3----2~~~~~~~~~~~---3-3-5-]  x2

C#[---------------------|----------|----------------------------]
G#[---------------------|----------|----------------------------]
E [---------------------|----------|----------------------------]
B [---------------------|----------|----------------------------]
F#[--3-2-0-0----3-2-0-0-|--3-2-0---|--3/5-5-5-------------------]
B [--3-2-0-0----3-2-0-0-|--3-2-0---|--3/5-5-5-------------------]
     . . . .    . . . .    . . .                                              
                         times 3

C#[------------------------------------------------------------------]
G#[--5-5-5-5-5-5-5-5-6-6-6-8-8-8-8-8-3-3-3-3-3-3-3-3-6-6-6-3-3-3-6-6-]
E [--4-4-4-4-4-4-4-4-5-5-5-7-7-7-7-7-2-2-2-2-2-2-2-2-5-5-5-2-2-2-5-5-]
B [--2-2-2-2-2-2-2-2-3-3-3-5-5-5-5-5-0-0-0-0-0-0-0-0-3-3-3-0-0-0-3-3-] 
F#[--2-2-2-2-2-2-2-2-3-3-3-5-5-5-5-5-0-0-0-0-0-0-0-0-3-3-3-0-0-0-3-3-] 
B [--2-2-2-2-2-2-2-2-3-3-3-5-5-5-5-5-0-0-0-0-0-0-0-0-3-3-3-0-0-0-3-3-] x2

C#[------------------------------------]
G#[-----5~~~--5/6/7-------5~~~---3-3-6-]
E [-----4~~~--4/5/6-------4~~~---2-2-5-]
B [--2~~~~~~--2/3/5----2~~~~~~---0-0-3-]
F#[--2~~~~~~--2/3/5----2~~~~~~---0-0-3-]
B [--2~~~~~~--2/3/5----2~~~~~~---0-0-3-]  x2 

C#[--------------------------------]
G#[--------------------------------]
E [--------------------------------]
B [--------------------------------]
F#[--0h2-2-2-0h2-2-2---2-2-0h2-2-2-]
B [--0h2-2-2-0h2-2-2---2-2-0h2-2-2-]

C#[-------]
G#[-------]
E [-------]
B [--.-.--]
F#[--2-2--]
B [--2-2--] x4

C#[------------------------------------------------------------------]
G#[--5-5-5-5-5-5-5-5-6-6-6-8-8-8-8-8-3-3-3-3-3-3-3-3-6-6-6-3-3-3-6-6-]
E [--4-4-4-4-4-4-4-4-5-5-5-7-7-7-7-7-2-2-2-2-2-2-2-2-5-5-5-2-2-2-5-5-]
B [--2-2-2-2-2-2-2-2-3-3-3-5-5-5-5-5-0-0-0-0-0-0-0-0-3-3-3-0-0-0-3-3-] 
F#[--2-2-2-2-2-2-2-2-3-3-3-5-5-5-5-5-0-0-0-0-0-0-0-0-3-3-3-0-0-0-3-3-] 
B [--2-2-2-2-2-2-2-2-3-3-3-5-5-5-5-5-0-0-0-0-0-0-0-0-3-3-3-0-0-0-3-3-] x2

C#[------------------------------------]
G#[-----5~~~--5/6/7-------5~~~---3-3-6-]
E [-----4~~~--4/5/6-------4~~~---2-2-5-]
B [--2~~~~~~--2/3/5----2~~~~~~---0-0-3-]
F#[--2~~~~~~--2/3/5----2~~~~~~---0-0-3-]
B [--2~~~~~~--2/3/5----2~~~~~~---0-0-3-]  x4

C#[----------------------------------------------]
G#[-----5~~~~~~~~--------------5~~~~~~~~---------]
E [-----4~~~~~~~~--------------4~~~~~~~~---------]
B [----------------------------------------------]
F#[--2~~~~~~~~~~~--0-3-3----2~~~~~~~~~~~---3-3-5-]
B [--2~~~~~~~~~~~--0-3-3----2~~~~~~~~~~~---3-3-5-]  x4

C#[-------]
G#[-------]
E [-------]
B [--.-.--]
F#[--2-2--]
B [--2-2--]
Comments