Drowning Pool - Bodies Chords & Tabs

 

Bodies Chords & Tabs

Drowning Pool Chords & Tabs

Version: 4 Type: Tab 0 ratings
1 star 2 stars 3 stars 4 stars 5 stars
comments

Bodies Tab

   
SONG TITLE: BODIES
ARTIST: DROWNING POOL
TABBED BY: DANIEL "ACE - A SPADES" NIST (lead vocalist, songwriter,
primary lead guitarist, secondary rhythm guitarist and secondary
bassist of the band Lethal Truth)

Hey everyone,

   Now a lot of you probably don't know about the band Drowning Pool. 
Well let me tell you, their song Bodies is off the chain. I mean talk
about hardcore metal. Anyway have fun with the tab. Keep your guitar 
in standard tuning. Enjoy!

- Ace - 


h = HAMMER ON
p = PULL OFF
x = MUTE
s = SLIDE
b = BEND


INTRO: RIFF I

GUITARS PLAY THIS FOUR TIMES

e|----------------------------------------------|
B|----------------------------------------------|
G|----------------------------------------------|
D|-5-55-----------------------------------------|
A|-3-33-4-4444----------------------------------|
E|------2-2222----------------------------------|

BASS PLAYS THIS FOUR TIMES

G|----------------------------------------------|
D|----------------------------------------------|
A|-3-33-----------------------------------------|
E|------2-2222----------------------------------|

RIFF II:

GUITARS PLAY THIS FOUR TIMES

NOTE: PLAY WITH WAH WAH EFFECTS.

e|----------------------------------------------|
B|-------13-13-13-13-13-13-13-13----------------|
G|-------12-12-12-12-12-12-12-12----------------|
D|----------------------------------------------|
A|-3-333----------------------------------------|
E|-3-333----------------------------------------|

e|----------------------------------------------|
B|-------17-17-17-17-17-17-17-17----------------|
G|-------16-16-16-16-16-16-16-16----------------|
D|----------------------------------------------|
A|-3-333----------------------------------------|
E|-3-333----------------------------------------|

BASS PLAYS THIS TWICE

NOTE: START PLAYING AFTER GUITARS HAVE PLAYED THE ABOVE RIFF
TWICE.

G|----------------------------------------------|
D|----------------------------------------------|
A|-3-3h4-3-3h4-3h4------------------------------|
E|----------------------------------------------|

VERSE:

GUITARS PLAY THIS EIGHT TIMES

NOTE: PALM MUTE
[ Tab from: http://www.guitartabs.cc/tabs/d/drowning_pool/bodies_tab_ver_4.html ]
e|----------------------------------------------|
B|----------------------------------------------|
G|----------------------------------------------|
D|----------------------------------------------|
A|-3-3h4-3-3h4-3h4------------------------------|
E|-3-3h4-3-3h4-3h4------------------------------|

BASS PLAYS THIS EIGHT TIMES

G|----------------------------------------------|
D|----------------------------------------------|
A|-3-3h4-3-3h4-3h4------------------------------|
E|----------------------------------------------|

PRECHORUS:

GUITARS PLAY THIS FOUR TIMES.

NOTE: PALM MUTE THE -

A|--3-33--|
E|--3-33--|

e|----------------------------------------------|
B|------13------17------------------------------|
G|------12------16------------------------------|
D|----------------------------------------------|
A|-3-33----3-33---------------------------------|
E|-3-33----3-33---------------------------------|

BASS PLAYS THIS FOUR TIMES

G|----------------------------------------------|
D|----------------------------------------------|
A|-3-33-----------------------------------------|
E|----------------------------------------------|

CHORUS:

GUITARS PLAY THIS EIGHT TIMES

e|----------------------------------------------|
B|----------------------------------------------|
G|----------------------------------------------|
D|-5-55-----------------------------------------|
A|-3-33-4-4444----------------------------------|
E|------2-2222----------------------------------|

BASS PLAYS THIS EIGHT TIMES

G|----------------------------------------------|
D|----------------------------------------------|
A|-3-33-----------------------------------------|
E|------2-2222----------------------------------|

INTERLUDE BETWEEN CHORUS AND VERSE II:

PLAY INTRO RIFF II

INTERLUDE AFTER CHORUS II:

PLAY THIS TWICE

e|----------------------------------------------|
B|----------------------------------------------|
G|----------------------------------------------|
D|----------------------------------------------|
A|--3-333-3--3-333--3333--3-333-6-66-4----------|
E|--3-333-3--3-333--3333--3-333-6-66-4----------|
                    xxxx

BASS PLAYS THIS TWICE

G|----------------------------------------------|
D|----------------------------------------------|
A|-3-333-3--3-333-3333-3-333-6-66-4-------------|
E|----------------xxxx--------------------------|

INTERLUDE II AFTER CHORUS II:

PLAY INTRO RIFF II TWICE
Comments