Drowning Pool - Bodies Chords & Tabs

 

Bodies Chords & Tabs

Drowning Pool Chords & Tabs

Version: 3 Type: Tab 0 ratings
1 star 2 stars 3 stars 4 stars 5 stars
comments

Bodies Tab

DRoWNiNG PooL - bodies
transcribed by cody tatum

k, tune guitars down one step, kick on some distortion and lets go...
nobody has gotten this tab right yet, so im gonna be the first.. heh


 intro:
let the bodies hit the floor...
[ Tab from: http://www.guitartabs.cc/tabs/d/drowning_pool/bodies_tab_ver_3.html ]
d-------------------------------------
a-------------------------------------
f-------------------------------------
g--9--9-9--8--8-8-8\-2--2-2--/8--8-8-8
b--7--7-7--8--8-8-8\-2--2-2--/8--8-8-8
d--7--7-7--6--6-6-6\-0--0-0--/6--6-6-6  (play through twice)


with heavy wah
d------0h12-12-12-12-12-12-12------12/17-17-17-17-17-17-17
a------0h12-12-12-12-12-12-12------12/17-17-17-17-17-17-17
f------0h9--9--9--9--9--9--9-------12/17-17-17-17-17-17-17
g---------------------------------------------------------
b---------------------------------------------------------
d-0-x--------------------------0-x------------------------

well, thats the main part of the song, but that is how it should
be played...
Comments