Drowning Pool - Bodies Chords & Tabs

 

Bodies Chords & Tabs

Drowning Pool Chords & Tabs

Version: 2 Type: Tab 0 ratings
1 star 2 stars 3 stars 4 stars 5 stars
comments

Bodies Tab

Bodies by Drowning Pool
Tabbed by Jason

There are no tabs on this site for this songso i decided to do it
myself...its an awesome song, pretty fast but pretty easy
Drop C tuning

Riff 1/Chorus Riff 2/Wah riff
|------------|-------------------------|
|------------|-------------------------|
|------------|-7-777-777-7-7-778-888-8-|
|-7-7776-666-|-------------------888-8-|
|-5-5556-666-|-5-555-555-5-5-556-666-6-|
|------6-666-|-------------------------|
Every other time on the chorus play 0 on the 6th string
[ Tab from: http://www.guitartabs.cc/tabs/d/drowning_pool/bodies_tab_ver_2.html ]
Riff 3/verse
|--------------|----------------------------|
|--------------|----------------------------|
|--------------|----------7777---------8888-|
|--------------|----------------------------|
|-0-01-0-001-3-|-0-01-0-0055550-01-0-006666-|
|-0-01-0-001-3-|-0-01-0-00----0-01-0-00-----|
Pm.........

Bridge
|---------------|
|---------------|
|---------------|
|-660-66-xx-x-x-|
|-660-66-xx-x-x-|
|-660-66-xx-x-x-|listen to the song, those are the chords, play around
                 with rhythm

"Solo"
|-10----22-----------|
|-------------23--22-|
|--------------------|
|--------------------|
|--------------------|
|--------------------|

It's not exactly complete but its about right i think...everything 
else is just variations of these riffs
Email questions, comments, death threats, etc. to powerkordz @aol.com
Comments