Drowning Pool - Bodies Chords & Tabs

 

Bodies Chords & Tabs

Drowning Pool Chords & Tabs

Version: 1 Type: Bass Tab 0 ratings
1 star 2 stars 3 stars 4 stars 5 stars
comments

Bodies Bass Tab

   
Drowning Pool
Bodies

Transcribed By: Jephthah Rae
Email: jeffrae@knet.ca

Tunning- 
low to high- C,G,C,F

Intro

F|---------------------------------------------------------------------------|
C|---------------------------------------------------------------------------|
G|---------------------------------------------------------------------------|
C|--0--0-0--0-0-6--6-6-6--6\---0--0-0--0-6-6--6-3----------------------------|

F|---------------------------------------------------------------------------|
C|---------------------------------------------------------------------------|
G|---------------------------------------------------------------------------|
C|--0--0-0--0-0-6--6-6-6--6\---0--0-0--0-6-6--6-3-0--------------------------|


RIFF A

G|---------------------------------------------------------------------------|
D|---------------------------------------------------------------------------|
A|------(5)------------------------5-5-6--6-6-8--8-10-10\--------------------|
E|--0------------------------------------------------------------------------|


RIFF B

G|---------------------------------------------------------------------------|
D|---------------------------------------------------------------------------|
A|---------------------------------------------------------------------------|
E|--0---0-1-0---0-1-3--------------------------------------------------------|


RIFF C

G|---------------------------------------------------------------------------|
D|---------------------------------------------------------------------------|
A|---------------------------------------------------------------------------|
E|--0---0-0-3---3-3-5---5/7---7\---------------------------------------------|


RIFF D
[ Tab from: http://www.guitartabs.cc/tabs/d/drowning_pool/bodies_btab.html ]
G|---------------3-----------------------------------------------------------|
D|---------------------------------------------------------------------------|
A|--5----3---5-------5---3---------------------------------------------------|
E|---------------------------------------------------------------------------|


RIFF E

G|---------------------------------------------------------------------------|
D|---------------------------------------------------------------------------|
A|--5-5-6--6/8-8-10-10-10----------------------------------------------------|
E|---------------------------------------------------------------------------|


RIFF F

G|---------------------------------------------------------------------------|
D|---------------------------------------------------------------------------|
A|---------------------------------------------------------------------------|
E|--0--0-0-6--6-6-6\---0--0-0-6--6-6-3---------------------------------------|


BRIDGE

G|---------------------------------------------------------------------------|
D|---------------------------------------------------------------------------|
A|---------------------------------------------------------------------------|
E|--3-3---3-6-3-0--0-0--0-0-0--00000000000----3-3---3-6-3-0--3--3-1-1-111111-|

G|---------------------------------------------------------------------------|
D|---------------------------------------------------------------------------|
A|---------------------------------------------------------------------------|
E|--3-3---3-6-3-0--0-0--0-0-0--00000000000----3-3---3-6-3-0--3--3-1-1--1-1-1-|




O R D E R


INTRO  1X      INTRO

RIFF A 1X
RIFF B 11X
RIFF C 1X      VERSE 1
RIFF D 7X
RIFF E 1X

RIFF F 4X      CHORUS

RIFF B 11X
RIFF C 1X
RIFF D 7X      VERSE 2
RIFF E 1X

RIFF F 4X      CHORUS 

BRIDGE 1X      BRIDGE

RIFF A 1X
RIFF B 7X
RIFF C 1X      VERSE 3
RIFF D 7X
RIFF E 1X

RIFF F 8X      CHORUS/OUTRO
Comments