Drown Sam - Wasted Sorrow Chords & Tabs

 

Wasted Sorrow Chords & Tabs

Drown Sam Chords & Tabs

Version: 1 Type: Tab 0 ratings
1 star 2 stars 3 stars 4 stars 5 stars
comments

Wasted Sorrow Tab

#----------------------------------PLEASE NOTE--------------------------------#
#This file is the author's own work and represents their interpretation of the#
#song. You may only use this file for private study, scholarship, or research.#
#-----------------------------------------------------------------------------#
#-- File created with Instab - http://www.pconline.com/~smcarey/instab.html --#
#-----------------------------------------------------------------------------#

Author/Artist: Secular
Title: Wasted Sorrow
STANDARD TUNING  


-7--77---7----5--55---5----3--33---3-----2----3----2--------------------------
----------0------------0------------0----------------0------------------------
------------------------------------------------------------------------------
------------------------------------------------------------------------------
-7--77--7--7--5--55--5--5--3--33--3---3--2----3----2--------------------------
------------------------------------------------------------------------------
 INTRO (finger picked) (2x)                                                   

-----------------------|------------------------------------------------------------
-----------------------|------------------------------------------------------------
-444-555-444-777-|-----5-----7------------------------------------------------
-444-555-444-777-|--2--5--5--7--7-5-4-----------------------------------------
-222-333-222-555-|--2--3--5--5--7-5-4-----------------------------------------
-----------------------|--2-----5-----7-5-4-----------------------------------------
 PRE-CHORUS (PM)   CHORUS                                                     

---------------------------|-----------------------------------------------------|--------------
---------------------------|-----------------------------------------------------|--------------
---------------------------|-----------------------------------------------------|--------------
---------------------------|-----------------------------------------------------|--------------
-7*10-10-9-7*10-10-9-|-3*10-10-9-3*10-10-9-2*10-10-9-2*10-10-9-|--------------
---------------------------|-----------------------------------------------------|--------------
 CHORUS (guitar 2) #1                                            back to 1    
[ Tab from: http://www.guitartabs.cc/tabs/d/drown_sam/wasted_sorrow_tab.html ]
------------------------------------------------------------------------------
------------------------------------------------------------------------------
---0--0--0--0--0--0--0--0--0--0--0--0--0--0--0--0-----------------------------
--5--5--5--5--4--4--4--7--5--5--5--5--4--4--7--4------------------------------
-7--7--7--7--5--5--5--5--3--3--3--3--2--2--5--2-------------------------------
------------------------------------------------------------------------------
 VERSE                                                                        

-0---2---0---5/3/2------------------------------------------------------------
-0---3---1---3-3-3------------------------------------------------------------
-0---2---0---2-2-2------------------------------------------------------------
-2---0---2---0----------------------------------------------------------------
-2---0---3---0----------------------------------------------------------------
-2---0---x---0----------------------------------------------------------------
 VERSE (guitar 2)                                                             

------------------------------------------------------------------------------
-3-5b-12-8-7-7p8h7---------8-7-5-0-1-0-7--------------------------------------
-------------------7-7-5-5----------------------------------------------------
------------------------------------------------------------------------------
------------------------------------------------------------------------------
------------------------------------------------------------------------------
 GUITAR SOLO (rpt 2x) (medium-fast)                                           

------------------------------------------------------------------------------
-3-5b-3-3-1/3/1-0-0-----------------------------------------------------------
--------------------2-4-4-4b-4-2-0-2-0----------------------------------------
---------------------------------------4--------------------------------------
------------------------------------------------------------------------------
------------------------------------------------------------------------------
 GUITAR SOLO                                                                  

------------------------------------------------------------------------------
-3-5b-3-3-1/3/1-0-0--------------------------5--------------------------------
--------------------2-4-4-4b-4-2-0-2-0-------x--------------------------------
---------------------------------------4-2-0-2--------------------------------
------------------------------------------------------------------------------
------------------------------------------------------------------------------
 GUITAR SOLO                                                                  

------------------------------------------------------------------------------
------------------------------------------------------------------------------
------5-4-5-4-7----------------------------------------------------------------
-2-0-5-4-5-4-7----------------------------------------------------------------
-2-0-3-2/3/2/5----------------------------------------------------------------
-2-0--------------------------------------------------------------------------
 rhythm guitar for GUITAR SOLO (the chords)                                   

Comments