Dropline - Best Thing Chords & Tabs

 

Best Thing Chords & Tabs

Dropline Chords & Tabs

Version: 1 Type: Tab 0 ratings
1 star 2 stars 3 stars 4 stars 5 stars
comments

Best Thing Tab

Song: Best Thing
Artist: Dropline
Tabber: Gian T. Lao
E-Mail: gianlao@hotmail.com (e-mail me for any corrections/questions/comments)

This is my first tab so go easy on me :)

Intro/Verse1: 
Strumming pattern isn't included, it's easy to figure out though...
|--------------------------|
|--------------------------|
|--4-------2-------------- |
|--4-------2-------------- |	x 16
|--2-------0-------------- |
|--------------------------|


Pre-Chorus:

|-------5----3----2-----  |
|---3-------------------- |
|-------------------------|
|-------------------------|		x2
|-------------------------|
|-------------------------|		

Chorus/Verse2: Again no strumming Pattern

|----------------------------------------|
|----------------------------------------|
|----------------------------------------|
|------5----7----9---7-----------------  |
|------5----7----9---7-----------------  |		x8
|------3----5----7---5-----------------  |

Weird Solo-Thing: I'm not sure about this, I didn't tab the part where
you slide high btw because I'm not sure...
[ Tab from: http://www.guitartabs.cc/tabs/d/dropline/best_thing_tab.html ]
|-------5--------------------------5-----5--3-2-3-2------|
|---3------32/3x2------3-----3-------------------------|
|--------------------------------------------------------|
|--------------------------------------------------------|
|--------------------------------------------------------|	x2
|--------------------------------------------------------|

If this (solo) is wrong you might wanna try taking it up a step.

I don't want to talk about it 
Cause it means I'm thinking of you 
I don't want to think it over 
Because it means I'm thinking it's true 
I'm trying to catch the falling pieces 
But you're always in the way 
I'm trying to be the voice of reason 
But I don't know what to say 

I can't see you for him 
There's no doubt 
All my friends say 

You were the best thing I ever had 
You were the best thing that happened to me 
You were the best thing I ever had 

Well I wake up with this lonely feeling 
You can't save me from being alone 
I can't shake this lonely feeling 
It's the worst I've ever known 

[01:14]I can't see you for him 
There's no doubt 
All my friends say 

You were the best thing I ever had 
You were the best thing that happened to me 
You were the best thing I ever had 

And it's time to let you go 
And it's time to let you go 
Let you go 

I wake up with this lonely feeling 
You can't save me from being alone 
I can't shake this lonely feeling 
It's the worst I've ever known 

You were the best thing I ever had 
You were the best thing that happened to me 
You were the best thing I ever had 

I can't do this 
I can't feel this 
I can't leave this 
I can't leave this 
I can't give it away

Thanks! Have fun!
Comments