Dropkick Murphys - World Full Of Hate Chords & Tabs

 

World Full Of Hate Chords & Tabs

Dropkick Murphys Chords & Tabs

Version: 1 Type: Tab 0 ratings
1 star 2 stars 3 stars 4 stars 5 stars
comments

World Full Of Hate Tab

Intro:
-----------
-----------
-----------
---0-0-----
-------0---
-----------
Verse:(strum all the chords through the whole song)
------------------------------------------------------------------------
------------------------------------------------------------------------
--------------------------5-5-5-5-5-5-5-5-5-5-5-5-5-5-5-5-5-5-5-5-5-5---
---5-5-5-5-5-5-5-5-5-5-5--5-5-5-5-5-5-5-5-5-5-5-5-5-5-5-5-5-5-5-5-5-5---
---5-5-5-5-5-5-5-5-5-5-5--3-3-3-3-3-3-3-3-3-3-3-3-3-3-3-3-3-3-3-3-3-3---
---3-3-3-3-3-3-3-3-3-3-3------------------------------------------------
[ Tab from: http://www.guitartabs.cc/tabs/d/dropkick_murphys/world_full_of_hate_tab.html ]
-----------------------
-----------------------
-----------------------
---5-5-5-5-5--7-7-7-7-7
---5-5-5-5-5--7-7-7-7-7
---3-3-3-3-3--5-5-5-5-5

----------------
----------------
----------------
----------------
---3-2-0--------
----------3-5---

Chorus:
------------------------------------------------------------------------
------------------------------------------------------------------------
--------------------------5-5-5-5-5-5-5-5-5-5-5-5-5-5-5-5-5-5-5-5-5-5---
---5-5-5-5-5-5-5-5-5-5-5--5-5-5-5-5-5-5-5-5-5-5-5-5-5-5-5-5-5-5-5-5-5---
---5-5-5-5-5-5-5-5-5-5-5--3-3-3-3-3-3-3-3-3-3-3-3-3-3-3-3-3-3-3-3-3-3---
---3-3-3-3-3-3-3-3-3-3-3------------------------------------------------

-----------------------
-----------------------
-----------------------
---5-5-5-5-5--7-7-7-7-7
---5-5-5-5-5--7-7-7-7-7
---3-3-3-3-3--5-5-5-5-5
Comments