Dropkick Murphys - Workers Song Chords & Tabs

 

Workers Song Chords & Tabs

Dropkick Murphys Chords & Tabs

Version: 1 Type: Bass Tab 0 ratings
1 star 2 stars 3 stars 4 stars 5 stars
comments

Workers Song Bass Tab

artist: dropkick murphys
album: blackout
track:worker's song

Intro

G-------------------------------------------|
D-----------555-3-3-1111-33333--------------|
A--1111111--------------------3-3-3/5-5-3---|
E-------------------------------------------|

MAIN RIFF
[ Tab from: http://www.guitartabs.cc/tabs/d/dropkick_murphys/workers_song_btab.html ]
G---------------------------------------|
D-----------555-3-3-1111-33333----------|
A-11111111----------------------3-5-3-1-|
E---------------------------------------|

G-------------------------------------------|
D-----------555-3-3-1111-33333--------------|
A--1111111--------------------3-3-3/5-5-3---|
E-------------------------------------------|

THATS PRETTY MUCH IT. ITS A GREAT SONG
Comments