Dropkick Murphys - Time To Go Chords & Tabs

 

Time To Go Chords & Tabs

Dropkick Murphys Chords & Tabs

Version: 2 Type: Tab 0 ratings
1 star 2 stars 3 stars 4 stars 5 stars
comments

Time To Go Tab

   
Band: Dropkick Murphys
Song: Time to Go
Album: Blackout
Tabber: clark@theoddmenout.com

*= mute chord

Intro: (accordian)  Part 1
e-------------------------|----------------------|----------|
B-------------------------|----------------------|----------|
G--9-7----10-9-7-5---5----|----------------8-----|----------|
D------10----------7---5--|--9-7----10-9-7----7--|--Part-1--|
A-------------------------|------10--------------|----------|
E-------------------------|----------------------|----------|

e-------------------------|
B-------------------------|
G------------7-9-7-5-4-5--|
D--5--7-9-10--------------|
A-------------------------|
E-------------------------|

Guitar kicks in with:

C,F,C,C C,F,G x2

Fill 1:
e--6/8888888888888--|
B--6/8888888888888--|
G-------------------|
D-------------------|
A-------------------|
E-------------------|

Chorus:
C
Go! Go! Black and Gold!
F
Old-time hockey, bar the door
C                    G
Clear the track it's all-out war
F                            G              C
Light the lamp, throw a hit, Black and Gold never quit!
    F
The barn is full, our team's in town
   C                G                    F
So put 'em up boys, knock 'em, knock'em  down
                            G   
Drop the puck, it's time to go!

[ Tab from: http://www.guitartabs.cc/tabs/d/dropkick_murphys/time_to_go_tab_ver_2.html ]
Verse 1:
C*         F*         C*
Bust outta work, it's quarter-past five
        C*           F*                G*
Time to round up the gang and take the Red to the Orange Line
C*           F*             C
Head for the street and the Causeway crowd
        C              F             G
You can feel it in the air, when the team's in town

Fill 2:
e-----------------|
B--6b8---b8r-4----|
G--------------5--|
D-----------------|
A-----------------|
E-----------------|

Chorus x1

Verse 2:
C*         F*                  C*
Rancourt's ready, it's time to take to the ice
   C*           F*               G*
So tie down the jersey 'cause it could get ugly tonight
C           F                  C
Top corner, five hole, off the post and in
     C             F             G
On a quest for the cup, and we're ready to win 

Chorus x1 (start with fill 2)

Bridge:   x6
e-----------|
B-----------|
G----5-5----|
D--3-5-5-5--|
A--3-3-3-5--|
E--1-----3--|

Solo:
e------88888888---888888-1111111111111111/8----8-----8-----8----8--|
B--668-88888888---888888-1010101010101010/8----8-------------------|
G--------------10b--------------------------10b--10b---10b---10b---|
D------------------------------------------------------------------|
A------------------------------------------------------------------|
E------------------------------------------------------------------|

e--------------------------------------------------8-8-8---------|
B--12b13b13b13b13b13b13------13-13-13----13-13-13--8-8-8----7b8--|
G-------------------------15b---------15b------------9-9h10------|
D----------------------------------------------------------------|
A----------------------------------------------------------------|
E----------------------------------------------------------------|

Outro:
F                           G   C
Drop the puck, it's time to go

That's it! For suggestions, corrections, and requests, email me:
                        oddmenout4@yahoo.com
Comments