Dropkick Murphys - Time To Go Chords & Tabs

 

Time To Go Chords & Tabs

Dropkick Murphys Chords & Tabs

Version: 1 Type: Tab 0 ratings
1 star 2 stars 3 stars 4 stars 5 stars
comments

Time To Go Tab

Dropkick Murphys
Blackout
Time to Go 
Standard tuning

Easy song to play, but its a great one for you Bruins fans.

email ihave_a_d_d@hotmail.com if you think im full of shit.

Intro (Transcribed Accordeon)
|--------------------------------------------------
|-----------------------------------------8--------
|--9-7----10-9-7------------9-7----10-9-7----7-----
|------10--------10-7-10--------10-----------------
|------------------------10------------------------
|--------------------------------------------------

|--------------------------------------------------
|--------------------------------------------------
|--9-7----10-9-7-----------------------7-9---------
|------10--------10-7-10--------7-9-10-----10-9-10-
|------------------------10--10--------------------
|--------------------------------------------------
[ Tab from: http://www.guitartabs.cc/tabs/d/dropkick_murphys/time_to_go_tab.html ]
Guitar Intro & Chorus
|------------------------------------------------
|------------------------------------------------
|--555555--------555555555555555555--------------
|--555555-333333-555555555555555555-333333-555555    x2
|--333333-333333-333333333333333333-333333-555555
|---------111111--------------------111111-333333

"Go! Go! Black and Gold!" (boston bruins colors if you didnt know ;)

      1st time        2nd & 3rd Time
|-----/888888~ --------/8~ ----------------------
|-----/888888~ ------- /8~ 8-6-------------------
|------------------------------8-5---------------
|------------------------------------------------
|------------------------------------------------
|------------------------------------------------

Verse
|-------------------------------------------------------
|-------------------------------------------------------
|---------------555555----------------------------555555
|--333333333333-555555-555555-333333333333-555555-555555  x2
|--333333333333-333333-555555-333333333333-555555-333333 
|--111111111111--------333333-111111111111-333333-------

After 2nd Chorus
|--------------
|--------------
|--------------
|-------------- x 6 or 8...
|-------3-x----
|--3--1--------

I'll post the solo when i figure it out. its not that impressive, you can improv it.
Comments