Dropkick Murphys - The Wild Rover Chords & Tabs

 

The Wild Rover Chords & Tabs

Dropkick Murphys Chords & Tabs

Version: 1 Type: Tab 0 ratings
1 star 2 stars 3 stars 4 stars 5 stars
comments

The Wild Rover Tab

The Wild Rover
as played by Dropkick Murphy's on the album "Sing Loud, Sing Proud"
Original by The Dubliners
Tabbed by TheRisen


INTRO
e-------------------------------------------------|
B-------------------------------------------------|
G-----2-2-----4-4-4-4-2-4-5--5-7-7-5-4-0----4-2-0-|
D-4-5-----4-0-----------------------------0-------|
A-------------------------------------------------|
E-------------------------------------------------|

INTRO2/CHORUS   Strike each chord several times exept the last one
e-----------------------------------------------|
B-----------------------------------------------|
G--7-7-----5-----5-7----------------------------|
D--7-7-(5)-5---5-5-7-5--------------------------|
A--5-5-(5)-3---5-3-5-5--------------------------|
E------(3)-----3-----3--------------------------|
        ^
Note that this chord isn't
played every time in the chorus
[ Tab from: http://www.guitartabs.cc/tabs/d/dropkick_murphys/the_wild_rover_tab.html ]
Verse:
e-----------------------------------------------|
B-----------------------------------------------|
G-----------------------------------------------|
D-----5--------------------5------5----7--------|
A-----5--------------------3--5---3----5--------|
E-----3-----------------------3-----------------|

e-----------------------------------------------|
B-----------------------------------------------|
G------------------7----------------------------|
D-----5------------7--------7--7---5------------|
A-----5------------5--------5--5---3----5-------|
E-----3---------------------------------3-------|


Order:

Intro (guitar 2 plays chorus) 1x
Chorus                        1x
Verse                         2x
Chorus                        1x
Verse                         2x
Chorus                        1x
Verse                         2x
Chorus                        2x
Verse                         2x
Chorus                        2x
Comments