Dropkick Murphys - The Gauntlet Chords & Tabs

 

The Gauntlet Chords & Tabs

Dropkick Murphys Chords & Tabs

Version: 1 Type: Tab 0 ratings
1 star 2 stars 3 stars 4 stars 5 stars
comments

The Gauntlet Tab

----------------------------------------------------------------------------
THE GAUNTLET - Dropkick Murphy's
----------------------------------------------------------------------------

By:Antwizzle antwaond88@aol.com

intro
e|----------------------------------------------------------------------------|
B|----------------------------------------------------------------------------|
G|----------------------------------------------------------------------------|
D|----------------------------------------------------------------------------|
A|-----7-play a buncha times--------------------------------------------------|
E|-----5----------------------------------------------------------------------|

e|----------------------------------------------------------------------------|
B|----------------------------------------------------------------------------|
G|----------------------------------------------------------------------------|
D|----777---------------------------------------------------------------------|
A|----555--5/7------x4--------------------------------------------------------|
E|---------3/5----------------------------------------------------------------|

verse palm muted x2
e|---------------------------------------------------------------------------|
B|---------------------------------------------------------------------------|
G|---------------------------------------------------------------------------|
D|-----77777777-----------------------77777777-------------------------------|
A|-----55555555---77777777---55555555-55555555-------------------------------|
E|----------------55555555---33333333----------------------------------------|

verse x2
e|---------------------------------------------------------------------------|
B|---------------------------------------------------------------------------|
G|---------------------------------------------------------------------------|
D|-----77777777-----------------------77777777-------------------------------|
A|-----55555555---77777777---55555555-55555555-------------------------------|
E|----------------55555555---33333333----------------------------------------|

e|----------------------------------------------------------------------------|
B|----------------------------------------------------------------------------|
G|----------------------------------------------------------------------------|
D|----777---------------------------------------------------------------------|
A|----555--5/7------x4--------------------------------------------------------|
E|---------3/5----------------------------------------------------------------|

verse x2
e|---------------------------------------------------------------------------|
B|---------------------------------------------------------------------------|
G|---------------------------------------------------------------------------|
D|-----77777777-----------------------77777777-------------------------------|
A|-----55555555---77777777---55555555-55555555-------------------------------|
E|----------------55555555---33333333----------------------------------------|

chorus
e|---------------------------------------------------------------------------|
B|---------------------------------------------------------------------------|
G|---------------------------------------------------------------------------|
D|------------------77777----------------------------------------------------|
A|----7--7---7-5-5--55555-----7--7---7-5-5-----------------------------------|
E|----5--5---5-3-3------------5--5---5-3-3-----------------------------------|

e|---------------------------------------------------------------------------|
B|---------------------------------------------------------------------------|
G|---------------------------------------------------------------------------|
D|----777--------------------------------------------------------------------|
A|----555--5/7------x4-------------------------------------------------------|
E|---------3/5---------------------------------------------------------------|

verse palm muted x2
e|---------------------------------------------------------------------------|
B|---------------------------------------------------------------------------|
G|---------------------------------------------------------------------------|
D|-----77777777-----------------------77777777-------------------------------|
A|-----55555555---77777777---55555555-55555555-------------------------------|
E|----------------55555555---33333333----------------------------------------|

verse x2
e|----------------------------------------------------------------------------|
B|----------------------------------------------------------------------------|
G|----------------------------------------------------------------------------|
D|-----77777777-----------------------77777777--------------------------------|
A|-----55555555---77777777---55555555-55555555--------------------------------|
E|----------------55555555---33333333-----------------------------------------|

e|----------------------------------------------------------------------------|
B|----------------------------------------------------------------------------|
G|----------------------------------------------------------------------------|
D|----777---------------------------------------------------------------------|
A|----555--5/7------x4--------------------------------------------------------|
E|---------3/5----------------------------------------------------------------|
[ Tab from: http://www.guitartabs.cc/tabs/d/dropkick_murphys/the_gauntlet_tab.html ]
verse x2
e|---------------------------------------------------------------------------|
B|---------------------------------------------------------------------------|
G|---------------------------------------------------------------------------|
D|-----77777777-----------------------77777777-------------------------------|
A|-----55555555---77777777---55555555-55555555-------------------------------|
E|----------------55555555---33333333----------------------------------------|

chorus
e|---------------------------------------------------------------------------|
B|---------------------------------------------------------------------------|
G|---------------------------------------------------------------------------|
D|------------------77777----------------------------------------------------|
A|----7--7---7-5-5--55555-----7--7---7-5-5-----------------------------------|
E|----5--5---5-3-3------------5--5---5-3-3-----------------------------------|

e|---------------------------------------------------------------------------|
B|---------------------------------------------------------------------------|
G|---------------------------------------------------------------------------|
D|----777--------------------------------------------------------------------|
A|----555--5/7------x4-------------------------------------------------------|
E|---------3/5---------------------------------------------------------------|

(SOLO)
e-10-10-10-10-10-10-10-13-13-13-13-10---------------------------|
B-10-10-10-10-10-10-10-12-12-12-12-10-----------12b14r12--------|
G--------------------------------------12-10h12-12b14r12-10-----|
D-----------------------------------------------------------12~-|
A---------------------------------------------------------------|
E---------------------------------------------------------------|

e------------------------------------------------------|--------------|
B----------12b13r12----------12----12b14r12------------|--------------|
G-10-12-10-12b13r12-10----10-12-10-12b14r12-10---------|--------------|
D----------------------12----------------------12--12~-|--------------|
A------------------------------------------------------|--------10-11-|
E------------------------------------------------------|--10-13-------|

e-----------------------------------------------13-13-13-13-10--------|
B----------------------------12b13r12-----------12-12-12-15-10--------|
G-------------------10----10-12b13r12-10-----------------------12b14--|
D----10----10h11h12----12----------------12-12------------------------|
A-12----12------------------------------------------------------------|
E---------------------------------------------------------------------|

e----------13-13-13-10-|---------10-----------------5---------------3-|
B----------12-12-15-10-|---------10-----------------5---------------3-|
G---k14r12-------------|-12b14--------14r12-7-7b9-------9r7-5-5b7-----|
D----------------------|----------------------------------------------|
A----------------------|----------------------------------------------|
E----------------------|----------------------------------------------|

e--------10-10-10-13-10-------10-13-13-13-13-13-10----10-13-10-------10-|
B--------10-10-10-12-10-------10-12-12-12-12-12-10----10-12-10-------10-|
G--7r5------------------12b14----------------------12----------12b13----|
D------0----------------------------------------------------------------|
A-----------------------------------------------------------------------|
E-----------------------------------------------------------------------|

e--------------------------------------------------|--------------------|
B---12b13r12b13-12----------12----12b14r12---------|---(10)-13-14-13b15-|
G---12b13r12b13-12-10----10-12-10-12b14r12-10------|--------------------|
D---------------------12----------------------12~--|--------------------|
A--------------------------------------------------|--------------------|
E--------------------------------------------------|--------------------|

e------------------------------------------------------------------------|
B---13b15-----13b15-----13b15~~~-----------------------------------------|
G------------------------------------------------------------------------|
D------------------------------------------------------------------------|
A------------------------------------------------------------------------|
E------------------------------------------------------------------------|

chorus
e|---------------------------------------------------------------------------|
B|---------------------------------------------------------------------------|
G|---------------------------------------------------------------------------|
D|------------------77777----------------------------------------------------|
A|----7--7---7-5-5--55555-----7--7---7-5-5-----------------------------------|
E|----5--5---5-3-3------------5--5---5-3-3-----------------------------------|

e|----------------------------------------------------------------------------|
B|----------------------------------------------------------------------------|
G|----------------------------------------------------------------------------|
D|----777---------------------------------------------------------------------|
A|----555--5/7------x4--------------------------------------------------------|
E|---------3/5----------------------------------------------------------------|

end part
e|----------------------------------------------------------------------------|
B|----------------------------------------------------------------------------|
G|----------------------------------------------------------------------------|
D|---77777777-7---------------------------------------------------------------|
A|---55555555-5---------------------------------------------------------------|
E|----------------------------------------------------------------------------|
Comments