Dropkick Murphys - Sunshine Highway Chords & Tabs

 

Sunshine Highway Chords & Tabs

Dropkick Murphys Chords & Tabs

Version: 2 Type: Bass Tab 0 ratings
1 star 2 stars 3 stars 4 stars 5 stars
comments

Sunshine Highway Bass Tab

credit to songsterr for sheet music/tabs

Intro - 
G|------------|------------|------------|------------|
D|------------|------------|------------|------------|
A|------------|------------|------------|------------|
E|-3--3--3--3-|-3--3--3--3-|-3--3--3--3-|-3--3--3--3-|

G|------------|------------|------------|------------|
D|------------|------------|------------|------------|
A|------------|------------|------------|-5--3--2----|
E|-3--3--3--3-|-3--3--3--3-|-3--3--3--3-|----------5-|

Pre Verse - X2
G|------------|------------|------------|------------|
D|------------|------------|-5--5-------|------------|
A|-------5--5-|-3--3--5--5-|-------5--5-|-3--3-------|
E|-3--3-------|------------|------------|-------5--5-|

Verse - 
G|------------|------------|------------|------------|
D|------------|------------|------------|------------|
A|------------|------------|-3--3--3--3-|-5--5--5--5-|
E|-3--3--3--3-|-3--3--3--3-|------------|------------|

G|------------|------------|------------|------------|
D|-5--5--5--5-|-5--5--5--5-|------------|------------|
A|------------|------------|-3--3--3--3-|-5--5--5--5-|
E|------------|------------|------------|------------|

G|------------|------------|------------|------------|
D|------------|------------|------------|------------|
A|------------|------------|-3--3--3--3-|-5--5--5--5-|
E|-3--3--3--3-|-3--3--3--3-|------------|------------|

G|------------|------------|------------|------------|
D|-5--5--5--5-|-5--5--5--5-|------------|------------|
A|------------|------------|-3--3--3--3-|-5--3--2----|
E|------------|------------|------------|----------5-|
[ Tab from: http://www.guitartabs.cc/tabs/d/dropkick_murphys/sunshine_highway_btab_ver_2.html ]
Chorus 1 - X2
G|------------|------------|------------|------------|
D|------------|------------|-5--5-------|------------|
A|-------5--5-|-3--3--5--5-|-------5--5-|-3--3-------|
E|-3--3-------|------------|------------|-------5--5-|

Verse 2 - 
G|------------|------------|------------|------------|
D|------------|------------|------------|------------|
A|------------|------------|-3--3--3--3-|-5--5--5--5-|
E|-3--3--3--3-|-3--3--3--3-|------------|------------|

G|------------|------------|------------|------------|
D|-5--5--5--5-|-5--5--5--5-|------------|------------|
A|------------|------------|-3--3--3--3-|-5--5--5--5-|
E|------------|------------|------------|------------|

G|------------|------------|------------|------------|
D|------------|------------|------------|------------|
A|------------|------------|-3--3--3--3-|-5--5--5--5-|
E|-3--3--3--3-|-3--3--3--3-|------------|------------|

G|------------|------------|------------|------------|
D|-5--5--5--5-|-5--5--5--5-|------------|------------|
A|------------|------------|-3--3--3--3-|-5--3--2----|
E|------------|------------|------------|----------5-|

Chorus 2 - X2
G|------------|------------|------------|------------|
D|------------|------------|-5--5-------|------------|
A|-------5--5-|-3--3--5--5-|-------5--5-|-3--3-------|
E|-3--3-------|------------|------------|-------5--5-|

Solo - X2
G|------------|------------|------------|------------|
D|-------3--3-|-------3--3-|-8--8--3--3-|------------|
A|-1--1-------|-6--6-------|------------|-6--6--3--3-|
E|------------|------------|------------|------------|

Verse 3/Outro - X12
G|------------|------------|------------|------------|
D|------------|------------|------------|------------|
A|------------|------------|-3--3--3--3-|-5--5--5--5-|
E|-3--3--3--3-|-3--3--3--3-|------------|------------|

End with
G|---------------|
D|---------------|
A|---------------|
E|-3~~~----------|
Comments