Dropkick Murphys - Spicy Mchaggis Jig Chords & Tabs

 

Spicy Mchaggis Jig Chords & Tabs

Dropkick Murphys Chords & Tabs

Version: 2 Type: Tab 0 ratings
1 star 2 stars 3 stars 4 stars 5 stars
comments

Spicy Mchaggis Jig Tab

I really like this song, and the only version close to correct was on MX, so I'm giving
it to you here:

Artist - Dropkick Murphy's
Song - The Spicy McHaggis Jig
Album - Sing Loud, Sing Proud 
tabbed by - Luke Ellis
Date - 16/05/03


~=let the chord ring
 /=Slide 

bagpipes start the song off
Intro;  

e-----------------------------------------|
B-----------------------------------------|
G------------------------------10-8-------|
D--6/8~---6/8~---6/8~---6/8~---10-8-8-----|
A--6/8~---6/8~---6/8~---6/8----8--6-8-----|
E--4/6~---4/6~---4/6~---4/6~--------6-----|


Verse: X2 
Palm mute the whole of the verse listen to the song to
get the rhythem of the verse and palm muteing

e-------------------------------------|
B-------------------------------------|
G-------------888---------88-6--------|
D-888-666-888-888-888-666-88-6-88-----|
A-888-666-888-666-888-666-66-4-88-----|
E-666-444-666-----666-444------66-----| 

Chorus: X2 

e------------------------------------------------|
B------------------------------------------------|
G-----8888-----10101010----888810101010----------|
D-888888888888-101010108888888810101010-8888-----|
A-888866668888-8-8-8-8-88886666-8-8-8-8-8888-----|
E-6666----6666---------6666-------------6666-----|
[ Tab from: http://www.guitartabs.cc/tabs/d/dropkick_murphys/spicy_mchaggis_jig_tab_ver_2.html ]
Verse: X2 
Palm mute the whole of the verse listen to the song to
get the rhythem of the verse and palm muteing

e-------------------------------------|
B-------------------------------------|
G-------------888---------88-6--------|
D-888-666-888-888-888-666-88-6-88-----|
A-888-666-888-666-888-666-66-4-88-----|
E-666-444-666-----666-444------66-----| 

Chorus: X2 

e------------------------------------------------|
B------------------------------------------------|
G-----8888-----10101010----888810101010----------|
D-888888888888-101010108888888810101010-8888-----|
A-888866668888-8-8-8-8-88886666-8-8-8-8-8888-----|
E-6666----6666---------6666-------------6666-----|

Interlude
the boyz shout SPICY!! SPICY! SPICY! 

e---------------------------|
B---------------------------|
G----------------10-8-------|
D--6/8~---6/8~---10-8-8-----|
A--6/8~---6/8~---8--6-8-----|
E--4/6~---4/6~--------6-----|

Chorus: Play this until the end 

e------------------------------------------------|
B------------------------------------------------|
G-----8888-----10101010----888810101010----------|
D-888888888888-101010108888888810101010-8888-----|
A-888866668888-8-8-8-8-88886666-8-8-8-8-8888-----|
E-6666----6666---------6666-------------6666-----|

I Hope someone can use this tab
Comments