Dropkick Murphys - Spicy Mchaggis Jig Chords & Tabs

 

Spicy Mchaggis Jig Chords & Tabs

Dropkick Murphys Chords & Tabs

Version: 1 Type: Tab 0 ratings
1 star 2 stars 3 stars 4 stars 5 stars
comments

Spicy Mchaggis Jig Tab

this is my first tab im sure its right


ill give u the chords in order u figure out the...yeah

bagpipe and drums
"ill tell u a story..."
-------|-----
-------|-----
-------|-----
-7\8---|8-7-6
-7\8---|8-7-6
-5\6---|6-5-4
[ Tab from: http://www.guitartabs.cc/tabs/d/dropkick_murphys/spicy_mchaggis_jig_tab.html ]
"spicey was big...."
pm..........
----------------
----------------
-------8-----8--
-8-4-8-8-8-4-8-8
-8-4-8-6-8-4-6-8
-6-6-6---6-6---6

"One night at a..."
------------------
------------------
---8---10---8-10--
-8-8-8-10-8-8-10-8
-8-6-8--8-8-6--8-8
-6---6----6------6

"he got to her house...."same as "spicey was big..."
"spicey, spicey...." same as "ill tell you a story..."
the rest is "one night at a..."
Comments