Dropkick Murphys - Im Shipping Up To Boston Chords & Tabs

 

Im Shipping Up To Boston Chords & Tabs

Dropkick Murphys Chords & Tabs

Version: 1 Type: Tab 1 rating
1 star 2 stars 3 stars 4 stars 5 stars
comments

Im Shipping Up To Boston Tab

   
----------------------------------------------------------------------------
			     I'M SHIPPING UP TO BOSTON
                             Dropkick Murphys
----------------------------------------------------------------------------
Tabbed by: drunkguitarist

intro (do second part after all the other instruments kick in)
e|-------------------------|
B|-------------------------|
G|-------------------------|
D|-------------------------|
A|-------------------------|
E|-00-00-00-00-00-00-00-00-|
second part
e|----------|
B|----------|
G|----------|
D|-22-22-22-| repeat a bunch of times
A|-22-22-22-|
E|-00-00-00-|
third part i guess
e|-----------------------|
B|-----------------------|
G|-----------------------|
D|-2~---4~---2~---4-4-2~-|
A|-2~---4~---2~---4-4-2~-| repeat 2x i think
E|-0~---2~---0~---2-2-0~-|
[ Tab from: http://www.guitartabs.cc/tabs/d/dropkick_murphys/im_shipping_up_to_boston_tab.html ]
verse?
e|----------|
B|----------|
G|----------|
D|-22-22-22-| repeat a bunch of times
A|-22-22-22-|
E|-00-00-00-|
on second verse one of these
e|------|
B|------|
G|------|
D|-0000-|
A|-0000-|
E|-0000-|
pm ....

pre-chorus/chorus(the other instruments to all the work here)
e|-----------------------|
B|-----------------------|
G|-----------------------|
D|-2~---4~---2~---4-4-2~-|
A|-2~---4~---2~---4-4-2~-|
E|-0~---2~---0~---2-2-0~-|

outro
e|-------------------------------------------|
B|-------------------------------------------|
G|-------------------------------------------|
D|-22-22-22-4~-2~-99999999999999999999~---22-|
A|-22-22-22-4~-2~-99999999999999999999~---22-|
E|-00-00-00-2~-0~-77777777777777777777~---00-| one guitar does a pick slide on this string durint he 7-9-9's

i really don't know if this is 100% or 50% but its what i play so g'day

DROPKICK MURPHYS RULE
Comments