Dropkick Murphys - Heroes From Our Past Chords & Tabs

 

Heroes From Our Past Chords & Tabs

Dropkick Murphys Chords & Tabs

Version: 1 Type: Tab 0 ratings
1 star 2 stars 3 stars 4 stars 5 stars
comments

Heroes From Our Past Tab

HEROES FROM OUR PAST - Dropkick Murphys

By:Keith Grigas

Intro/Verse   5x
e|--------------------------------------------------------|
B|--------------------------------------------------------|
G|---------8------8------10-------------8----10---8-------|
D|--8------8------8------10------8------8----10---8---8---|
A|--8------6------6-------8------8------6-----8---6---8---|
E|--6----------------------------6--------------------6---|

Chorus
e|----------------------------------------------------------------------------|
B|----------------------------------------------------------------------------|
G|--8---12---10---7---8---12---10--8------8---8---7---8---10-----------8---10-|
D|--8---12---10---7---8---12---10--88-8---8---8---7---8---10---8---8---8---10-|
A|--6---10----8---5---6---10----8--68-8---6---6---5---6----8---8---8---6----8-|
E|----------------------------------6-6------------------------6---6----------|

Verse   2x
e|--------------------------------------------------------|
B|--------------------------------------------------------|
G|---------8------8------10-------------8----10---8-------|
D|--8------8------8------10------8------8----10---8---8---|
A|--8------6------6-------8------8------6-----8---6---8---|
E|--6----------------------------6--------------------6---|
[ Tab from: http://www.guitartabs.cc/tabs/d/dropkick_murphys/heroes_from_our_past_tab.html ]
Chorus   2x   
e|-------------------------------------------------------------------|--------|
B|-------------------------------------------------------------------|--------|
G|-8---12---10---7---8---12---10--8------8---8---7---8---10----------|-8---10-|
D|-8---12---10---7---8---12---10--88-8---8---8---7---8---10---8---8--|-8---10-|
A|-6---10----8---5---6---10----8--68-8---6---6---5---6----8---8---8--|-6----8-|
E|---------------------------------6-6------------------------6---6--|--------|

Verse   2x (palm mute second time)
e|--------------------------------------------------------|
B|--------------------------------------------------------|
G|---------8------8------10-------------8----10---8-------|
D|--8------8------8------10------8------8----10---8---8---|
A|--8------6------6-------8------8------6-----8---6---8---|
E|--6----------------------------6--------------------6---|

Chorus   2x
e|--------------------------------------------------------------------|
B|--------------------------------------------------------------------|
G|--8---12---10---7---8---12---10--8------8---8---7---8---10----------|
D|--8---12---10---7---8---12---10--88-8---8---8---7---8---10---8---8--|
A|--6---10----8---5---6---10----8--68-8---6---6---5---6----8---8---8--|
E|----------------------------------6-6------------------------6---6--|

Outro
e|-----------------------------------------------------|
B|-----------------------------------------------------|
G|--8---10-----------8---10-----------8---10-----10----|
D|--8---10---8---8---8---10---8---8---8---10---8-10-8--|
A|--6----8---8---8---6----8---8---8---6----8---8--8-8--|
E|-----------6---6------------6---6------------6----6--|
Comments