Dropkick Murphys - Good Rats Chords & Tabs

 

Good Rats Chords & Tabs

Dropkick Murphys Chords & Tabs

Version: 1 Type: Bass Tab 0 ratings
1 star 2 stars 3 stars 4 stars 5 stars
comments

Good Rats Bass Tab

GOOD RATS - Dropkick Murphy's

Intro
G|-------------------------------| 
D|-------------------------------|
A|-------------------------------|
E|-3---3----3---3---3----3-------| 
[ Tab from: http://www.guitartabs.cc/tabs/d/dropkick_murphys/good_rats_btab.html ]
Verse
G|----2--------------------------| 
D|--3------2---------2-3---------| 
A|-------3------2--3-------------| 
E|------------3------------------| 

Chorus & Bridge
G|----------------------------------------------------------------| 
D|-----------0-2----------------------------0-2-------------------| 
A|---3---2-3-----3---3---2-3-2------3---2-3-----3---3---2-3-0---3-| 
E|-1---3-----------1---3-------5--1---3-----------1---3-------3---|
Comments