Dropkick Murphys - Finnegans Wake Chords & Tabs

 

Finnegans Wake Chords & Tabs

Dropkick Murphys Chords & Tabs

Version: 1 Type: Tab 0 ratings
1 star 2 stars 3 stars 4 stars 5 stars
comments

Finnegans Wake Tab

FINNEGAN'S WAKE - Dropkick Murphys

By:No Hero123@aol.com

Verse Guitar 1            
e|---------------------------------------------|
B|---------------------------------------------|
D|------------------9-------------11-----------|
G|----9------6------9------9------11-----------|
A|----9------6------7------9-------9-----------|
E|----7------4-------------7-------------------|
strum these at the end of \_________/
each verse

Chorus Guitar 1
e|------------------------------------------------------------|
B|------------------------------------------------------------|
D|--4--4-4-4-4-4----------------9--9-9-9-9-9-11-1111111111----|
G|--4--4-4-4-4-4--6--6-6-6-6-6--9--9-9-9-9-9-11-1111111111----|
A|--2--2-2-2-2-2--6--6-6-6-6-6--7--7-7-7-7-7--9--9-9-9-9-9----|
G|----------------4--4-4-4-4-4--------------------------------|

Guitar 2
e|------------------------------------------------------------|
B|------------------------------------------------------------|
D|--4--4-4-4-4-4----------------------------------------------|
G|--4--4-4-4-4-4--6--6-6-6-6-6--2--2-2-2-2-2--4--4-4-4-4-4----|
A|--2--2-2-2-2-2--6--6-6-6-6-6--2--2-2-2-2-2--4--4-4-4-4-4----|
G|----------------4--4-4-4-4-4--0--0-0-0-0-0--2--2-2-2-2-2----|

[ Tab from: http://www.guitartabs.cc/tabs/d/dropkick_murphys/finnegans_wake_tab.html ]
Whoooa part Guitar 1
e|---------------------------------------------------------|
B|---------------------------------------------------------|
D|--------------9-9-9-9-9--11-11-11-11-11------------------|
G|---9-9-9-9-9--9-9-9-9-9--11-11-11-11-11--9-9-9-9-9-------|
A|---9-9-9-9-9--7-7-7-7-7---9--9--9--9--9--9-9-9-9-9-------|
E|---7-7-7-7-7-----------------------------7-7-7-7-7-------|

Guitar 2
e|---------------------------------------------------------|
B|---------------------------------------------------------|
D|---------------------------------------------------------|
G|---9-9-9-9-9--2-2-2-2-2---4--4--4--4--4--9-9-9-9-9-------|
A|---9-9-9-9-9--2-2-2-2-2---4--4--4--4--4--9-9-9-9-9-------|
E|---7-7-7-7-7--0-0-0-0-0---2--2--2--2--2--7-7-7-7-7-------|
TIM FINNEGAN'S WAKE - Dropkick Murphys

By: Shagy;  shagyWM@aol.com

INTRO + FIRST VERSE
-----------------------------------------------------------
-----------------------------------------------------------
---------------9----------11-------------------------------
---9----6-----9-----9---11---------------------------------
--9----6-----7-----9---9-----------------------------------
-7----4-----------7----------------------------------------

CHORUS
------------------------------------------------------------
------------------------------------------------------------
-------------------8--9--9---11-----------------------------
---9--9--8--6--6--8--9--9--11-------------------------------
--9--9--8--6--6--6--7--7--9---------------------------------
-7--7--6--4--4----------------------------------------------

BRIDGE
-------------------------
-------------------------
-------9----11-----------
---9--9---11----9--------
--9--7---9-----9---------
-7------------7----------

SECOND VERSE
-----------------------------
-----------------------------
-------8---9----11-----------
---9--8---9---11-------------
--9--6---7---9---------------
-7---------------------------
Comments