Dropkick Murphys - Finnegans Wake Chords & Tabs

 

Finnegans Wake Chords & Tabs

Dropkick Murphys Chords & Tabs

Version: 2 Type: Bass Tab 0 ratings
1 star 2 stars 3 stars 4 stars 5 stars
comments

Finnegans Wake Bass Tab

Finnegan's Wake  ( a good song no matter who its done by)
()means let ring  > means play 8 times >> means 16

Intro:
G:-------------------------------------   x2
D:-------------------------------------
A:--------------------(7)-----------(9)
E:-(7)-------(4)---------------(7)-----

2nd part of intro:
G:------------------------------- x2
D:-------------------------------
A:------------------7-----------9
E:-7--------4---------------7----
Next part (this is the same as the chorus)
G:--------------------------------
D:-------------------------------- x2
A:----------------67777777--999999
E:-777777-5444444----------7------
[ Tab from: http://www.guitartabs.cc/tabs/d/dropkick_murphys/finnegans_wake_btab_ver_2.html ]
Verse:
G:------------------ x2
D:------------------
A:---------7>>----9>
E:7>>--4>>-----7>---

Chorus:
G:--------------------------------
D:-------------------------------- x2
A:----------------67777777--999999
E:-777777-5444444----------7------

Verse x2
Chorus x2

Whoa Part
G:---------------  x2
D:---------------
A:----6>>-7>>----
E:7>>---------7>>

"Peggy O'Connor took up the job" part
G:-------------------------------- x2
D:--------------------------------
A:---------(6)--------(7)-------(9)
E:-(7)----------------------------

"Micky Maloney raised his head" part
G:----------------  x2
D:----------------
A:-----6>>-7>>-9>>
E:-7>>------------

chorus x4
end
Comments