Dropkick Murphys - Finnegans Wake Chords & Tabs

 

Finnegans Wake Chords & Tabs

Dropkick Murphys Chords & Tabs

Version: 1 Type: Bass Tab 0 ratings
1 star 2 stars 3 stars 4 stars 5 stars
comments

Finnegans Wake Bass Tab

Dropkick Murphys - Finnegan's Wake
Transcripted By: thesittingcow@home.com

Intro
G:-----------------------
D:-----------------------
A:-2-----2-4-2-----2-4-2-
E:---4-0-------4-0-------

Next:
G:----------...-----------
D:------2---...------2>---
A:--2-----4-...-2>-----4>-
E:----4-----...----4>-----
[ Tab from: http://www.guitartabs.cc/tabs/d/dropkick_murphys/finnegans_wake_btab.html ]
Next:
G:---------------------------
D:---------------------------
A:--2>----------------2>-4>--
E:--------4>----0>-----------

"Whoa-oa-oa..."
G:-------------
D:-------------
A:-2>-------2>-
E:----0>-2>----

"And Peggy O'Connor.."
G:---------...-------------
D:---1-2-4-...----1>-2>-4>-
A:-2-------...-2>----------
E:---------...-------------
====
Comments