Dropkick Murphys - Fields Of Athenry Chords & Tabs

 

Fields Of Athenry Chords & Tabs

Dropkick Murphys Chords & Tabs

Version: 3 Type: Tab 0 ratings
1 star 2 stars 3 stars 4 stars 5 stars
comments

Fields Of Athenry Tab

Song:Feilds of Athenry
Band:Dropkick Murphys
Tabbed By: Cory Shaffer (With the help of Joshua Watson)
January 10, 2004
e-mail:da_shaffmaster@hotmail.com

Intro
----------------------------------6-6-6-6-----
----------------------------------6-6-6-6-----
----------------------------8-8---7-7-7-7-----
----------5-------6-6-6-5---8-8---------------
8-8-8-8---x---8---x-x-x-x---6-6---------------
6-6-6-6---6---6---6-6-6-6---------------------


Verse
p.m.    **    **   *    **    **   *    **    **   *    **    **   *
--------------------------------------------------------------------------
--------------------------------------------------------------------------
------8-88-8--88-8-8------------------8-88-8--88-8-8----------------------
------8-88-8--88-8-8--6-66-6--66-6-6--8-88-8--88-8-8--8-88-8--88-8-8------
------6-66-6--66-6-6--6-66-6--66-6-6--6-66-6--66-6-6--8-88-8--88-8-8------
----------------------4-44-4--44-4-4------------------6-66-6--66-6-6------
By a lonely...

   **    **   *    **    **   *    **    **   *
------------------------------------------------------------
------------------------------------------------------------
-8-88-8--88-8-8---------------------------------------------
-8-88-8--88-8-8--6-66-6--66-6-6--8-88-8--88-8-8-------------
-6-66-6--66-6-6--6-66-6--66-6-6--8-88-8--88-8-8-------------
-----------------4-44-4--44-4-4--6-66-6--66-6-6-------------
Micheal they have...
   **    **   *    **    **   *    **    **   *    **    **   *
---------------------------------------------------------------------
---------------------------------------------------------------------
-8-88-8--88-8-8------------------8-88-8--88-8-8----------------------
-8-88-8--88-8-8--6-66-6--66-6-6--8-88-8--88-8-8--8-88-8--88-8-8------
-6-66-6--66-6-6--6-66-6--66-6-6--6-66-6--66-6-6--8-88-8--88-8-8------
-----------------4-44-4--44-4-4------------------6-66-6--66-6-6------
For you stole...

 * **   **    *   **   **   *    ********
--------------------------------------------------------
--------------------------------------------------------
-------------------------------8-8888888888888888-------
-8-88-8-88-8--8-8-88-8-88-8-8--8-8888888888888888-------
-8-88-8-88-8--8-8-88-8-88-8-8--6-6666666666666666-------                  
-6-66-6-66-6--6-6-66-6-66-6-6---------------------------
Now A prison...

[ Tab from: http://www.guitartabs.cc/tabs/d/dropkick_murphys/fields_of_athenry_tab_ver_3.html ]
Chours
------------------------------------------
------------------------------------------
-88888888------------88888888--55555555---
-88888888--66666666--88888888--55555555---
-66666666--66666666--66666666--33333333---
-----------44444444-----------------------
Low lie...


------------------------------------------
------------------------------------------
-88888888---------------------------------
-88888888--66666666--88888888--88888888---
-66666666--66666666--88888888--88888888---
-----------44444444--66666666--66666666---
For once...

------------------------------------------
------------------------------------------
-88888888------------88888888-------------
-88888888--66666666--88888888--88888888---
-66666666--66666666--66666666--88888888---
-----------44444444------------66666666---
Our love...

-------------------------------------------------
-------------------------------------------------
---------------------88888888--88888888----------
-88888888--88888888--88888888--88888888----------
-88888888--88888888--66666666--66666666----------
-66666666--66666666------------------------------
So lonely..



Solo
-------------------------------------------------------------
-------------------------------------------------------------
-3---5-3-1---0--0---------0--00---0---3---1-1---0------------
--------------3-----1-1-3-------3----------------3---1-3-----
-------------------------------------------------------------
-------------------------------------------------------------


------------------------------------------------------------------
------------------------------------------------------------------
-3-3--5-3-1---0--0---1-1-------------0---1-1--0-------------------
--------------3---------1-3---3-3-----3--------3-1-1--------3-3---
------------------------------------------------------------------
------------------------------------------------------------------

-------------------
-------------------
-0---1-1--0--------
--3--------3-1-1--
-------------------
-------------------

After Bagpipes
p.m.   **    **   *    **    **   *    **    **   *    **    **   *
-------------------------------------------------------------------------
-------------------------------------------------------------------------
-----8-88-8--88-8-8------------------8-88-8--88-8-8----------------------
-----8-88-8--88-8-8--6-66-6--66-6-6--8-88-8--88-8-8--8-88-8--88-8-8------
-----6-66-6--66-6-6--6-66-6--66-6-6--6-66-6--66-6-6--8-88-8--88-8-8------
---------------------4-44-4--44-4-4------------------6-66-6--66-6-6------

Repeat As Many Times as Necessary.
e-mail me if you have any questions or comments.
Comments