Dropkick Murphys - Fields Of Athenry Chords & Tabs

 

Fields Of Athenry Chords & Tabs

Dropkick Murphys Chords & Tabs

Version: 1 Type: Bass Tab 0 ratings
1 star 2 stars 3 stars 4 stars 5 stars
comments

Fields Of Athenry Bass Tab

   
Intro:
G----------------------------------|
D----------------------------------|
A-66666666666666666666666666666666-|
E----------------------------------|

Verse 1:
G-----------------------------|
D-----------------------------|
A-6---------------------------|
E-----------------------------|

G----------------------------------------------------------------------------------------|
D----------------------------------------------------------------------------------------|
A-6--------------------6------------------------------------------------6666666666666666-|
E-----------4----------------------6-----------6------------6----------------------------|

Chorus:
G-------------------------------------------------------------------------|
D-------------------------------------------------------------------------|
A-66666666----------66666666-33333333-66666666----------------------------|
E----------44444444----------------------------44444444-66666666-66666666-|

G-------------------------------------------------------------------------|
D-------------------------------------------------------------------------|
A-66666666----------66666666----------------------------66666666-66666666-|
E----------44444444----------44444444-66666666-66666666-------------------|

G-------------------------------------|
D-------------------------------------|
A-------------------66666666-66666666-|
E-66666666-66666666-------------------|
[ Tab from: http://www.guitartabs.cc/tabs/d/dropkick_murphys/fields_of_athenry_btab.html ]
Verse 2:
G-----------------------------------------------------------|
D----5h8--5--------------5h8--5-----------------------------|
A-6------------3h6--3-6------------5h8--5------------5h8--5-|
E-----------4-------------------6---------6--5h8--6---------|

G-----------------------------------------|
D----5h8--5-------------------------------|
A-6------------3h6--3----5h8--5----5h8--5-|
E-----------4---------6---------6---------|

G------------------------------------------------------------------------------|
D----5h8--5--------------5h8--5------------------------------------------------|
A-6------------3h6--3-6------------5h8--5----5h8--5----5h8--5-6666666666666666-|
E-----------4-------------------6---------6---------6--------------------------|

(Chrous)

For the solo play the Chorus riff.

Verse 3:
G----------------------------------------------------------------------------------|
D----------------------------------------------------------------------------------|
A-66666666----------66666666-------------------66666666----------------------------|
E----------44444444----------66666666-66666666----------44444444-66666666-66666666-|

G-------------------------------------------------------|
D-------------------------------------------------------|
A-66666666----------66666666----------------------------|
E----------44444444----------66666666-66666666-66666666-|

After bag-pipes play:
G-------------------------------------|
D-------------------------------------|
A-------------------66666666-66666666-|
E-66666666-66666666-------------------|

(Chorus)

That's it!
Comments