Dropkick Murphys - Cadence To Arms Chords & Tabs

 

Cadence To Arms Chords & Tabs

Dropkick Murphys Chords & Tabs

Version: 2 Type: Tab 0 ratings
1 star 2 stars 3 stars 4 stars 5 stars
comments

Cadence To Arms Tab

CADENCE TO ARMS - Dropkick Murphys

By: Danny Bigham (strungoutxxx@punkmail.com)

this is the bagpipes part played using a guitar. up until the guitar comes in anyway.
sorry, i dont know how to play the bagpipes.(let alone make tabs for 'em) 

e|-12-----------------------------------------------------------------------------------------12----
B|----12-12/14-14-12-14-14-12-14-14-12-14-12----14--12-12-12----12-12-12----12-12-12-14-15-12----12-
G|-------------------------------------------14--------------14----------14-------------------------
D|--------------------------------------------------------------------------------------------------
A|--------------------------------------------------------------------------------------------------
E|--------------------------------------------------------------------------------------------------

e|-------------------------------------------------------------------------
B|-12/14-14-14-12-14-14-14-12-14-14-14-12-14-12----14-12-12-12----12-12-12-
G|----------------------------------------------14-------------14----------
D|-------------------------------------------------------------------------
A|-------------------------------------------------------------------------
E|-------------------------------------------------------------------------

e|-17-15-14----------------------------12-17-17-15-17-------------14----------------------------
B|----------17-14----------12-14----14----------------17-14----15----15-14-17-14----------------
G|----------------14-12-14-------14-------------------------14-------------------14-16-14-16-14-
D|----------------------------------------------------------------------------------------------
A|----------------------------------------------------------------------------------------------
E|----------------------------------------------------------------------------------------------
[ Tab from: http://www.guitartabs.cc/tabs/d/dropkick_murphys/cadence_to_arms_tab_ver_2.html ]
e|-------17-17-15-17----------17-17-15-17----------17-17-15-14-17-15-14-17-15-14----------------|
B|----17-------------17-14----------------17-14-17-------------------------------17-15-14-------|
G|-14----------------------14-------------------------------------------------------------16-14-|
D|----------------------------------------------------------------------------------------------|
A|----------------------------------------------------------------------------------------------|
E|----------------------------------------------------------------------------------------------|

  this is the actual guitar part
  right after they say "1, 2, 3, 4!"
e|------------|
B|------------|
G|------------|
D|-7--7--7--7-|
A|-7--7--7--7-|
E|-5--5--5--5-|
                                                                          -|
e|-----------------------------------------------------------------|       | 
B|-----------------------------------------------------------------|       
G|------------------------------------7-7-7-7-7-7-7----------------|       |
D|-7--7-7-7-7-7-7-7--7-7-7-7-7-7-7-7--5-5-5-5-5-5-5-7--7-7-7-7-7-7-|       
A|-5--5-5-5-5-5-5-5--5-5-5-5-5-5-5-5--5-5-5-5-5-5-5-7--7-7-7-7-7-7-|       |
E|-5--5-5-5-5-5-5-5--5-5-5-5-5-5-5-5----------------5--5-5-5-5-5-5-| x2    
                                                                           |-- do this twice 
e|------------------|                                                       
B|------------------|                                                      |
G|-9--9-9-9-9-9-9-9-|                                                      
D|-9--9-9-9-9-9-9-9-|                                                      |
A|-7--7-7-7-7-7-7-7-|                                                       
E|------------------| x8                                                   |
                                                                          -|
Comments