Dropkick Murphys - Barroom Hero Chords & Tabs

 

Barroom Hero Chords & Tabs

Dropkick Murphys Chords & Tabs

Version: 1 Type: Bass Tab

Barroom Hero Bass Tab

barroom hero-dropkick murphys

intro
G-------------------|
D-------------------|
A-3-3-3-3-3-3-3-3---|
E-------------------|


verse
G------------------------------------------------------------|
D--------------3-3-3-3----------3-3-3-3-----------5-5-3-3----|
A--3-3-3-3-3----------3-3-3-3-----------3-3-3-3--------------|
E -----------------------------------------------------------|

[ Tab from: http://www.guitartabs.cc/tabs/d/dropkick_murphys/barroom_hero_btab.html ]
chorus
G----------------------------------------------------------------------|
D-3-3-3-3--------5-5-5-5----------3-3-3-3---------5-5-3-3--------------|
A--------3-3-3-3---------3-3-3-3----------3-3-3-3---------3-3-3-3------|
E----------------------------------------------------------------------|


slow part
G---------------------|
D---------------------|
A-3-3-3-3-3-3-3-3-3---|
E---------------------|

that's it!!

sharon (lonely-bastard@hotmail.com)