Dropkick Murphys - As One Chords & Tabs

 

As One Chords & Tabs

Dropkick Murphys Chords & Tabs

Version: 3 Type: Tab 0 ratings
1 star 2 stars 3 stars 4 stars 5 stars
comments

As One Tab

   
Band: Dropkick Murphys
Song: As One
Album: Blackout
Tabber: clark@theoddmenout

Bagpipe Intro:
        (Bb)   (Eb)(G)       (Eb) (Eb)  (f)       (G)   (f)x2
e--15-13-6--6-8-11--13--13-10-15---8--10-11-10-8-6-10--8-8--|
B-----------------------------------------------------------|
G-----------------------------------------------------------| 
D-----------------------------------------------------------|
A-----------------------------------------------------------|
E-----------------------------------------------------------| 
  (play above chords only the second time)

Intro Verse:
Bb         Eb   G             Eb
Tonight my son, I'll heed the call
Eb                 Eb           f
If you're to live, then I must fall..

Bagpipe Intro (faster, strumming the chords)

Verse 1:
     Bb               Eb              G               Eb
Just give me one more moment, another walk out in the sun
         Bb               Eb                G            Eb  Eb
One more day to find some justice with your shadow by my side
Bb               Eb                  G               Eb         f     G  f
Cuff me, tie me, lock me down 'cause I'll be back to go another round

Chorus:
   Bb   G
As one!
Eb            f               Bb    G
My blood runs red beneath the knife
Eb        f
I give my soul to you tonight

Bagpipe intro x1
[ Tab from: http://www.guitartabs.cc/tabs/d/dropkick_murphys/as_one_tab_ver_3.html ]
Verse 2:
     Bb             Eb                G                 Eb
From early on I was on my own with no light to guide my way
         Bb              Eb             G             Eb
Then the hand of destiny called me only now do I understand
Bb             Eb            G                  Eb           f      G  f 
Interwoven our lives became, bonded by blood no need to be repaid!

Chorus

Slow Bagpipe Intro

Solo:
e--------6----------------------------------------------------------------|
B----------6--------------4------------------------3h4-3-1----------------|
G--6b7-------7-5p3---3--5---7p5-3-3---------3---3----------3-0------------|
D------------------5-----------------3--3h5---5----------------3--3--5-3--|
A-------------------------------------------------------------------------|
E-------------------------------------------------------------------------|

e-----------------------------------------8--10-11-10-8------------------|
B------------------------------------8/10---------------10-8b9-b9-6h8p6--|
G---------3---3-3-5b7--b7r-3-3--3-5--------------------------------------|
D--3--3h5---5------------------------------------------------------------|
A------------------------------------------------------------------------|
E------------------------------------------------------------------------|

Chorus x1

Bb,Eb,G#,f,Eb,Eb,G,f

Outro:
     Bb               G                Eb           Bb
Just give me one more moment with your shadow by my side
Eb                      f            Bb
And we will always be together... as one

That's it! For suggestions, corrections, and requests, email me:
                        oddmenout4@yahoo.com
Comments