Dropbox - Wishbone Chords & Tabs

 

Wishbone Chords & Tabs

Dropbox Chords & Tabs

Version: 1 Type: Tab 0 ratings
1 star 2 stars 3 stars 4 stars 5 stars
comments

Wishbone Tab

   
Tune to Drop C- (C G C F A D)	      b=bend	       r=return

Intro/Chorus			      p=pull off

d------------------------------------------
a------------------------------------------
f------------------------------------------
c----------------------------------3---5--3
g----5p3p0---------5p3p0-----------3---5--3
c-0---------5p3p0---------5p0------3---5--3

d------------------------------------------
a------------------------------------------
f------------------------------------------
c----------------------------------6-------
g---5p3p0---------5p3p0------------6-------
c-0--------5p3p0---------5p0-------6-------


Verse

d----------------------------------------
a----------------------------------------
f--7------10----5-----7-7----------------
c--7------10----5-----7-7----------------
g--5-------8----3-----5-5----------------
c----------------------------------------
[ Tab from: http://www.guitartabs.cc/tabs/d/dropbox/wishbone_tab.html ]
d----------------------------------------
a----------------------------------------
f--7----10-------------------------------
c--7----10-------------------------------
g--5-----8-------------------------------
c---------------5---3--5br-3-------------


Bridge (1:45)

Guitar 1
d----------------------------------------
a----------------------------------------
f---7---------------10-------------------
c---x----------------x-------------------
g---5----------------8-------------------
c----------------------------------------
Guitar 2
d----------------------------------------
a---------------5------------------------
f---------------5------------------------
c-0-------------3------------------------
g-0-------------3------------------------
c-0-------------3------------------------


Double Time Feel (3:17)

d-----------------------------------
a-----------------------------------
f-----------------------------------
c-----------------------------------
g---5p3p0--------5p3p0------5p3-----
c-0--------5p3p0--------5p0------5p3

d---------------------------------
a---------------------------------
f---------------------------------
c--------------------------------6
g---5p3p0--------5p3p0-----------6
c-0--------5p3p0---------5p0-----6


Enjoy!
Comments