Dropbox - I Feel Fine Chords & Tabs

 

I Feel Fine Chords & Tabs

Dropbox Chords & Tabs

Version: 1 Type: Tab 0 ratings
1 star 2 stars 3 stars 4 stars 5 stars
comments

I Feel Fine Tab

Artist:Dropbox
Song:I Feel Fine
Tuning:Drop D
tabbed by: matt h. aka' ghetto candy

h:hammer p:pull 



 intro/chorus:
|----------------------------------------------------------------------|
|----------------------------------------------------------------------|
|----------------------------------------------------------------------|
|----------------------------------------------------------------------|
|------------------------------------------------------------8-7-------|
|-8h10-0-11p10-8-10-10-8-10-11p10-8-10-11p10-0-8h10-11-10-10-----11-10-|

|----------------------------------------------------------------------|
|----------------------------------------------------------------------|
|----------------------------------------------------------------------|
|----------------------------------------------------------------------|
|------------------------------------------------------8-8-x--6-6-6----|
|-8h10-0-11p10-8-10-10-8-10-11p10-8-10-11p10-0-8h10-10-8-8-x--6-6-6----|

 repeat


verse:

[ Tab from: http://www.guitartabs.cc/tabs/d/dropbox/i_feel_fine_tab.html ]
|----------------------------------------------------------------------|
|----------------------------------------------------------------------|
|----------------------------------------------------------------------|
|----------------------------------------------------------------------|
|-----0--------0--1-6------------------1-4----------------6------------|
|-0-0-0--0-0-0-0--1-6--0-0-0--0-0-0-0--1-4---0-0-0--0-0-0-6------------|
  . .    . . .         . .    . . .          . .    . . .   

 repeat how ever many times it goes

 bridge:
|----------------------------------------------------------------------|
|----------------------------------------------------------------------|
|----------------------------------------------------------------------|
|----------------------------------------------------------------------|
|--------8-7----------8-7----------------------------------------------|
|-10-8-0-----0-10-8-0-----0-10-8-0-0-----------------------------------|

 afterwards use same notes as chords



thats about it...enjoy.
Comments