Dropbox - End Of Days Chords & Tabs

 

End Of Days Chords & Tabs

Dropbox Chords & Tabs

Version: 1 Type: Tab 0 ratings
1 star 2 stars 3 stars 4 stars 5 stars
comments

End Of Days Tab

Artist:Dropbox
Song:End of Days
tuning:Drop D
tabbed by: matt h. aka' pancake

h=hammer p=pull .=palm mute ~=vibrato \=slide down

intro/chorus:

|--------------------------------------------------------------------------|
|--------------------------------------------------------------------------|
|--------------------------------------------------------------------------|
|---------5h7--7-7-7--7-7----------8h10--10-10-10----------5h7--7-7-7------|
|-5-5-5-5-5----5-5-5--5-5--8-8-8-8-8-----8--8--8---5-5-5-5-5----5-5-5--3-3-|
|-5-5-5-5------5-5-5--5-5--8-8-8-8-------8--8--8---5-5-5-5------5-5-5--3-3-|

 -----|
 -----|
 -----|
 -----|
 -3-1-|
 -3-1-|


verse:

|--------------------------------------------------------------|
|--------------------------------------------------------------|
|--------------------------------------------------------------|
|--------------------------------------------------------------|
|-0-0--0-0--3p1-0-0--0-0--0-0-3p1-0-0--0-0--0-0--3p1-0-0-3-3-1-|
|-0-0--0-0--3p1-0-0--0-0--0-0-3p1-0-0--0-0--0-0--3p1-0-0-3-3-1-|


lead:
[ Tab from: http://www.guitartabs.cc/tabs/d/dropbox/end_of_days_tab.html ]
|---------------------------------------------13b--10h11p10---10-------------|
|-8-------------------15\-----------13~-11h13---------------11---10h11p10----|
|-10b12--8~--12h15p12-15\--12h15p12--------------------------------------10~-|
|----------------------------------------------------------------------------|
|----------------------------------------------------------------------------|
|----------------------------------------------------------------------------|

 --------------------------------------------------------------------------|
 ------10b------10b------10b-----------------------------------------------|
 -8-10-10b-8-10-10b-8-10-10b-8~--------------------------------------------|
 --------------------------------------------------------------------------|
 --------------------------------------------------------------------------|
 --------------------------------------------------------------------------|


bridge:

|------------------------|-------------------------------------------------|
|------------------------|-------------------------------------------------|
|------------------------|-------------------------------------------------|
|------------------------|-------------------------------------------------|
|-0-0-0-10--5-5-5-8-8-8--|-5-5-8-8-------------5-5-8-8---------------------|
|-0-0-0-10--5-5-5-8-8-8--|-5-5-8-8----7-5-0-7--5-5-8-8--7-5-0-7------------|
  . . .                               . . . .           . . . .


Thats about it have fun.
Comments