Drop N Harmony - You Chords & Tabs

 

You Chords & Tabs

Drop N Harmony Chords & Tabs

Version: 2 Type: Tab 1 rating
1 star 2 stars 3 stars 4 stars 5 stars
comments

You Tab

 "You" performed by DAGS of Drop'N Harmony

 By Darwin Seegmiller and Armando Visperas

 May 2007


 [Intro Verse 1]
   45bpm
 e|----------------------------------------------------------------------------|
 B|---------0------------------------------------------------------------------|
 G|-------2--------------------------------------------------------------------|
 D|-----2----------------------------------------------------------------------|
 A|---0------------------------------------------------------------------------|
 E|----------------------------------------------------------------------------|

             Seems all my life I've waited, for someone like you...

 e|----------------------------------------------------------------------------|
 B|---------5------------------------------------------------------------------|
 G|-------4--------------------------------------------------------------------|
 D|-----6----------------------------------------------------------------------|
 A|---4------------------------------------------------------------------------|
 E|----------------------------------------------------------------------------|

             Sounds Cliche' but cross my heart I swear it's true...

 e|----------------------------------------------------------------------------|
 B|-------5--------------------------------------------------------------------|
 G|-----6----------------------------------------------------------------------|
 D|---4------------------------------------------------------------------------|
 A|----------------------------------------------------------------------------|
 E|----------------------------------------------------------------------------|

             See things like this don't happen to me.
 
 e|----------------------------------------------------------------------------|
 B|---5---4---3---------------------------------------------2------------------|
 G|---4---3---2---------------------------------------------0------------------|
 D|---------------------------------------------------------1------------------|
 A|---4---3---2----------------------------------------------------------------|
 E|----------------------------------------------------------------------------|

           That's why I find it hard to believe...  There's someone who ac-
 
 e|---------0---------------0h2p0------------------------4---------------------|
 B|-------3-----3-------3---3-----3--------------------5-----5---7-------------|
 G|-----2---------2---2-----2------------------------4-----------6-------------|
 D|---0-------------0------------------------------6-------------4-------------|
 A|----------------------------------------------4-----------------------------|
 E|----------------------------------------------------------------------------|

   -cepts me as an imperfect man, who sacrifices for me and who understands, 
   someone who will

 e|---------------------------0-----0-----------------------0------------------|
 B|-----------1-----1-----------3-----2-------------0---2----------------------|
 G|-------2-----2---------0-------0---2---------2------------------------------|
 D|-----2---2-----2-----0---0--------------------------------------------------|
 A|-------------------2---------------0----------------------------------------|
 E|---1------------------------------------------------------------------------|

   love me unconditionally and never stray, that someone is...

 [Pre-Chorus]
  53bpm
 e|-----------------------------0----------------------------2-----------------|
 B|---------0-----------0---2-------------5----3-----3-------------------------|
 G|-------2-----2-----2-----------------4------2-2---------2-------------------|
 D|-----2-----------0-----------------6------------4-----4---------------------|
 A|---0-----------------------------4----------2-------------------------------|
 E|----------------------------------------------------------------------------|

     You...    It's always     been you...  Forever I give all of me, to...

 [Chorus]
 e|-------------------------4--------------------------------------------------|
 B|---------5-------------------5---------5---5------h7p5----------------------|
 G|-------4-------4-----4---------------4-----6-----6----h7p6------------------|
 D|-----6-------6-----6---6-----------6-------4---4----------------------------|
 A|---5-------5-----5---------------4------------------------------------------|
 E|----------------------------------------------------------------------------|

    You... 'til the stars refuse to shine, 'til the oceans all run
  
 e|----------------------------------------------------------------------------|
 B|---3-----3---------------3---3-----3---2-------2-2--------------------------|
 G|---2-2-------2---------2-----4-----4---2-2-------0--------------------------|
 D|-------4-------4-----4-------2---2---------2--------------------------------|
 A|---2-------------2-2-------------------0---------0--------------------------|
 E|----------------------------------------------------------------------------|

     dry and I can no longer breathe, My love is yours eternally... Oh...

 e|---------------------------4---------2-------2------------------------------|
 B|---------5-------5-------7---------5---------2------------------------------|
 G|-------4-------4-------6---------4---------2--------------------------------|
 D|-----6-------6-------4---------2---------1----------------------------------|
 A|---5-------4----------------------------------------------------------------|
 E|----------------------------------------------------------------------------|

     You, My beautiful, Heavenly You...

 e|-----------------------2----------------------------------------------------|
 B|---------3---3-----3---3-3---5---3---------0--------------------------------|
 G|-------2-----4-----4-------2-4---2-------2----------------------------------|
 D|-----4-------2---2-----0---------------2------------------------------------|
 A|---2-------------------------4---2---0--------------------------------------|
 E|----------------------------------------------------------------------------|

     I pledge my life to you, My one and only you.

 [Verse 2]

 e|---------------------0------------------------------------------------------|
 B|---------------------0----------------------------------2h3-----------------|
 G|-------7-------------1------------------------------------------------------|
 D|-----7-----2-----2---2------------------------------------------------------|
 A|---5-----4-----0-----2------------------------------------------------------|
 E|---------------------0------------------------------------------------------|

    (BREATHE)

 e|------------------------------------0h2-------------------------------------|
 B|---2-----0-------0----------------------------------------------------------|
 G|---2---2-----2--------------------------------------------------------------|
 D|-----2---------2------------------------------------------------------------|
 A|---0------------------------------------------------------------------------|
 E|----------------------------------------------------------------------------|

     Amazing how you always take good care of me...
[ Tab from: http://www.guitartabs.cc/tabs/d/drop_n_harmony/you_tab_ver_2.html ]
 e|---------------------------0h2---3s4---5------------------------------------|
 B|---------5-------7-----5-------------------5--------------------------------|
 G|-------4-----4-------4-------------------6----------------------------------|
 D|-----6---------------------------------4------------------------------------|
 A|---4------------------------------------------------------------------------|
 E|----------------------------------------------------------------------------|

     Rain or shine, when I'm in need, I will do the best I can, work my hardest and...

 e|----------------------------------------------------------------------------|
 B|---5---4---3---------------------------------------------2------------------|
 G|---4---3---2---------------------------------------------0------------------|
 D|---------------------------------------------------------1------------------|
 A|---4---3---2----------------------------------------------------------------|
 E|----------------------------------------------------------------------------|

     Always strive to be a better man...             'Cause you're my 

 e|---0-------------------0h2p0-------------4----------------------------------|
 B|-----3-------------3---3-----3---5-----------5------------------------------|
 G|-------2---------2-----2---------4---4-------6------------------------------|
 D|---0---------0-0-----------------------6-----4------------------------------|
 A|---------------------------------4------------------------------------------|
 E|----------------------------------------------------------------------------|

     number one priority My hero and the angel who inspires me, If ever there is 

 e|-------------------------------------------------------------0--------------|
 B|---------1---------3-3---2---------------------------0---2------------------|
 G|-------2---------0-------2-----------------------2--------------------------|
 D|-----2---------0------------------------------------------------------------|
 A|-------------2-----------0--------------------------------------------------|
 E|---1------------------------------------------------------------------------|

     someone in this world perfect for me...  Baby it's ...


 [Pre-Chorus]
  
  Repeat


 [Chorus]

  Repeat


 [Bridge]
 e|----------------------------------------------------------------------------|
 B|----------------------------------------------------------------------------|
 G|-------7-------7-------7-------7-------6-------6-------6-------6------------|
 D|-----7-------7-------7-------7-------6-------6-------6-------6--------------|
 A|---5-------5-------5-------5-------4-------4-------4-------4----------------|
 E|----------------------------------------------------------------------------|

  Together You and I can conquer the world, A house with kids, a little boy and girl

 e|----------------------------------------------------------------------------|
 B|----------------------------------------------------------------------------|
 G|-------7-------7-------7-------7-------6-------6-------6-------6------------|
 D|-----7-------7-------7-------7-------6-------6-------6-------6--------------|
 A|---5-------5-------5-------5-------4-------4-------4-------4----------------|
 E|----------------------------------------------------------------------------|

  I promise that I'll never take you for granted, side by side through all the good times and bad


                                                        45bpm
 e|----------------------------------------------------------------------------|
 B|---5-------5-------5-------5-------5-----------5-----3-------3--------------|
 G|---6-------6-------6-------6-------6---------6-------2-------4--------------|
 D|---4-------3-----------------------------------------4-------2--------------|
 A|-------------------7-------6-------5-----5-5--------------------------------|
 E|----------------------------------------------------------------------------|

       I always knew that you were meant for me...  And I was   meant for...


[Chorus - Out]
 e|----------------------------------------------------------------------------|
 B|---------5-------------5---------------5---------5--------------------------|
 G|-------4-------------4---------------4-----------6--------------------------|
 D|-----6-------------6---------------6-------------4--------------------------|
 A|---5-------------5---------------4------------------------------------------|
 E|----------------------------------------------------------------------------|

    You... 'til the stars refuse to shine, 'til the oceans all run
  
 e|-----------------------------------------------------------2----------------|
 B|---------3----------------------------------3------------3------------------|
 G|-------2----------------------------------2------------4--------------------|
 D|-----4----------------------------4-----4------------2----------------------|
 A|---2----------------------------4-----2-------------------------------------|
 E|----------------------------------------------------------------------------|

     dry and I can no longer breathe, My love is yours eternally... Oh...

 e|---------------------------4---------2-------2------------------------------|
 B|---------5-------5-------7---------5---------2------------------------------|
 G|-------4-------4-------6---------4---------2--------------------------------|
 D|-----6-------6-------4---------2---------1----------------------------------|
 A|---5-------4----------------------------------------------------------------|
 E|----------------------------------------------------------------------------|

     You, My beautiful, Heavenly You...

 e|---------------------------------------------2------------------------------|
 B|--------------------3----------------------3--------------------------------|
 G|------------------2----------------------4----------------------------------|
 D|----------------4----------------------2------------------------------------|
 A|--------------2-------------------------------------------------------------|
 E|----------------------------------------------------------------------------|

     I pledge my life to you, Live all my life for you


 e|----------------------------------------------------------------------------|
 B|--------------------------------------0------0------------------------------|
 G|----------------------------7----2---------2--------------------------------|
 D|------------------------5h7----2----2----2----------------------------------|
 A|----------------------5------4----2----0------------------------------------|
 E|----------------------------------------------------------------------------|

     For you and only you,      Yes I will 


                       40bpm
 e|--------------------2------------0------------------------------------------|
 B|--------------------0-------3----2------------------------------------------|
 G|------7-------2-----2-------4----2------------------------------------------|
 D|----7-------2-------0-------2----2------------------------------------------|
 A|--5-------4---------2------------0------------------------------------------|
 E|----------------------------------------------------------------------------|

       Yes I will,  My One and Only You

Comments