Drop Dead Gorgeous - Love Is Murder Chords & Tabs

 

Love Is Murder Chords & Tabs

Drop Dead Gorgeous Chords & Tabs

Version: 1 Type: Tab

Love Is Murder Tab

. - palm mute

------------------------------------------------------|
------------------------------------------------------|
-------------------8------------------------8-8-------|
0-0----0000000-----x------0-0-0---0000000---x-x-------|  2x
0-0----0000000-----6------0-0-0---0000000---6-6-------|
0-0----0000000------------0-0-0---0000000-------------|
. .    .......            . . .   .......


-------------------------------------------------------------|
-------------------------------------------------------------|
-12-12-10-9--10-9--10-999--12-12--10-9--10-9--10-101010------|
--x--x-x--x--x--x--x--xxx---x--x--x--x--x--x--x---x-x-x------|
-10-10-8--7--8--7--8--777--10-10--8--7--8--7--8---8-8-8------|
-------------------------------------------------------------|
                                                              3x
--------------------------------------------------------------|
--------------------------------------------------------------|
-10101010101010-99999999-1212121212121212-99999999------------|
-x-x-x-x-x-x-x--xxxxxxxx-x-x-x-x-x-x-x-x--xxxxxxxx------------|
-8-8-8-8-8-8-8--77777777-1010101010101010-77777777------------|
--------------------------------------------------------------|


------------------------------------------------------------|
------------------------------------------------------------|
--------------------15-1515---------------------15-1515-----|
-0-0-0-0-0-0-0-0-0---x--x-x--0-0-0-0-0-0-0-0-0---x--x-x-----|
-0-0-0-0-0-0-0-0-0--13-1313--0-0-0-0-0-0-0-0-0--13-1313-----|
-0-0-0-0-0-0-0-0-0-----------0-0-0-0-0-0-0-0-0--------------|   . .   . .   . .          
  . .   . .   . .
[ Tab from: http://www.guitartabs.cc/tabs/d/drop_dead_gorgeous/love_is_murder_tab.html ]
------------------------------------------------------------|
------------------------------------------------------------|
--------------------15-1515---------------------------------|
-0-0-0-0-0-0-0-0-0---x--x-x--0-0-0-0-0-0-0-0-0---0--0-------|
-0-0-0-0-0-0-0-0-0--13-1313--0-0-0-0-0-0-0-0-0---0--0-------|
-0-0-0-0-0-0-0-0-0-----------0-0-0-0-0-0-0-0-0---0--0-------|
   . .   . .   . .             . .   . .   . .   .  .

------------------------------------------------------------|
------------------------------------------------------------|
--------------------15-1515---------------------15-1515-----|
-0-0-0-0-0-0-0-0-0---x--x-x--0-0-0-0-0-0-0-0-0---x--x-x-----|
-0-0-0-0-0-0-0-0-0--13-1313--0-0-0-0-0-0-0-0-0--13-1313-----|
-0-0-0-0-0-0-0-0-0-----------0-0-0-0-0-0-0-0-0--------------|   . .   . .   . .          
  . .   . .   . .


------------------------------------------------------------|
------------------------------------------------------------|
--------------------15-1515---------------------15-1515-----|
-0-0-0-0-0-0-0-0-0---x--x-x--0-0-0-0-0-0-0-0-0---x--x-x-----|
-0-0-0-0-0-0-0-0-0--13-1313--0-0-0-0-0-0-0-0-0--13-1313-----|
-0-0-0-0-0-0-0-0-0-----------0-0-0-0-0-0-0-0-0--------------|   . .   . .   . .          
  . .   . .   . .

------------------------------------------------------------|
------------------------------------------------------------|
--------------------15-1515---------------------15-1515-----|
-0-0-0-0-0-0-0-0-0---x--x-x--0-0-0-0-0-0-0-0-0---x--x-x-----|
-0-0-0-0-0-0-0-0-0--13-1313--0-0-0-0-0-0-0-0-0--13-1313-----|
-0-0-0-0-0-0-0-0-0-----------0-0-0-0-0-0-0-0-0--------------|   . .   . .   . .          
  . .   . .   . .

------------------------------------------------------------|
------------------------------------------------------------|
--------------------15-1515---------------------15-1515-----|
-0-0-0-0-0-0-0-0-0---x--x-x--0-0-0-0-0-0-0-0-0---x--x-x-----|
-0-0-0-0-0-0-0-0-0--13-1313--0-0-0-0-0-0-0-0-0--13-1313-----|
-0-0-0-0-0-0-0-0-0-----------0-0-0-0-0-0-0-0-0--------------|   . .   . .   . .          
  . .   . .   . .


---------------------------|
---------------------------|
---------------------------|
-0-0-0---------------------|
-0-0-0---------------------|
-0-0-0---------------------|
 . . .