Drongos For Europe - Mayday Chords & Tabs

 

Mayday Chords & Tabs

Drongos For Europe Chords & Tabs

Version: 1 Type: Tab 0 ratings
1 star 2 stars 3 stars 4 stars 5 stars
comments

Mayday Tab

from "Barcode Generation"

intro
E-------------------------------------------------------]
B--3-3-3-3-3-3------------------------------------------]
G--3-3-3-3-3-3---5-5-5-5-5-5-7/8/5--7--7/8/7--5---------]
D--3-3-3-3-3-3---5-5-5-5-5-5-7/8/7--7--7/8/7--5---------]
A----------------3-3-3-3-3-3-5/6/5--5--5/6/5--3---------]
E-------------------------------------------------------]

verse
E-------------------------------------------------]
B--3-x-x-x-x-x------------------------------------]
G--3-x-x-x-x-x--5-x-x-x-x-x-7/8/5--7--7/8/7--5----] 
D--3-x-x-x-x-x--5-x-x-x-x-x-7/8/7--7--7/8/7--5----]
A---------------3-x-x-x-x-x-5/6/5--5--5/6/5--3----]
E-------------------------------------------------]

chorus
E------------------------------------------------]
B---3--------------------------------------------]
G---3--5-----------------------------------------]
D---3--5--3--5-----------------------------------]
A------3--3--5-----------------------------------]
E---------1--3-----------------------------------]
[ Tab from: http://www.guitartabs.cc/tabs/d/drongos_for_europe/mayday_tab.html ]
bridge
E------------------------------------------------------]
B--3-3-3-3-3-3-----------------------------------------]
G--3-3-3-3-3-3---5-5-5-5-5-5-7-7-7-7-7-7-7-7-7-7-7-7---]
D--3-3-3-3-3-3---5-5-5-5-5-5-7-7-7-7-7-7-7-7-7-7-7-7---]
A----------------3-3-3-3-3-3-5-5-5-5-5-5-5-5-5-5-5-5---]
E------------------------------------------------------]
(palm muted)

verse x4
(COME ON!)
intro x2
verse x4
Global prozac on TV
dumbing down equals apathy
Corporate generals pull your strings 
mindless puppets by useless things
chorus x4
Mayday Mayday theres gonna be a riot ( x4)
intro x2
verse x4
Corporate empires they dont care 
cut down the trees pollute the air
fuelled by greed the human disease 
bringing this planet to its knees
chorus x4
Mayday Mayday theres gonna be a riot ( x4)
verse x4
(no vocals)
bridge x8
Global prozac on TV
dumbing down equals apathy
Corporate generals pull your strings 
mindless puppets by useless things
Corporate empires they dont care 
cut down the trees pollute the air
fuelled by greed the human disease 
bringing this planet to its knees
chorus x8
Mayday Mayday theres gonna be a riot (x8)

Now i know this is right coz anton taught me to play it and he fucking wrote the song!
Comments