Drivin N Cryin - Fly Me Courages Chords & Tabs

 

Fly Me Courages Chords & Tabs

Drivin N Cryin Chords & Tabs

Version: 1 Type: Bass Tab 0 ratings
1 star 2 stars 3 stars 4 stars 5 stars
comments

Fly Me Courages Bass Tab

Drivin N Cryin - Fly Me Courages
Tabbed By: Ryan Lovett
EMail: lovettt@bellsouth.net

I have noticed that no one has evr tabed yhis song out so I
figured I would. The tab in my opinion is 99.9% acurate, but E-mail me
if you feel any different. This song kicks ASS!

                          Intro
G-------------------------------------------------------------
D-------------------------------------------------------------
A-5-------------5------------5------------5-------------------
E--5--22-22-22---5--22-22-22--5--22-22-22--5------------------

                          Verse
G-------------------------------------------------------------
D-------------------------------------------------------------
A---------------------------------------3h5-3-----------------
E--2-2-2-2-2-2-2-2-2-2-2-2-2-2-2---3h5-3----------------------
[ Tab from: http://www.guitartabs.cc/tabs/d/drivin_n_cryin/fly_me_courages_btab.html ]
                          Chorus
G-------------------------------------------------------------
D-------------------------------------------------------------
A----------5--------------5-------------------------------------
E-22-22-22--5----22-22-22--5------------------------------------

                          Bridge
G-------------------------------------------------------------
D-------------------------------------------------------------
A------------------------------5--5---------------------------
E-22-22-22-22-1111111111111111--5--5--------------------------

                          Outro
G-------------------------------------------------------------
D-------------------------------------------------------------
A------------------------5------------------------------------
E-3-44--3-44--2-33--2-33---5----------------------------------


This is an very easy song it is mostly about timing
just listen to the timing on the verse and the bridge and you should
have it made. And also during the solo just play the verse over and
over. There you go one of the best Drivin n Cryin sons ever.

By: Ryan Lovett from "Hypertension"
lovettt@bellsouth.net
Comments