Dredg - Zebra Skin Chords & Tabs

 

Zebra Skin Chords & Tabs

Dredg Chords & Tabs

Version: 1 Type: Bass Tab 0 ratings
1 star 2 stars 3 stars 4 stars 5 stars
comments

Zebra Skin Bass Tab

Title: Zebra Skin
Artist: Dredg
Album: Catch Without Arms
Tabbed by: X3ndou
Email me with any comments or fixes or stuff: webmaster@x3dom.net

He slides between a lot of the notes btw.

Use song to get the rythm right

Intro x2
g|-----------------------------------------------------|
d|-----------------------------------------------------|
a|-2-2---2-2---2-2---2-2---7-7---7-7-------------------|
e|---------------------------------------5-5---5---5-6-|

Verse
g|-------------------------------------------------------|
d|-------------------------------------------------------|
a|-2-2---2-2---2-2---2-2---7-7---7-7---------------------|
e|---------------------------------------5-5---5-5---5-6-|

g|-------------------------------------------------------|
d|-------------------------------------7-7---7-7---------|
a|-2-2---2-2---2-2---2-2---7-7---7-7---------------------|
e|-------------------------------------------------------|

Chorus
g|-----------------------------------------------------------------|
d|-----------------------------------------------------------------|
a|-2-2-2-2-2-2-2-2-5-5-5-5-5-5-5-5---------------------------------|
e|---------------------------------5-5-5-5-5-5-5-5-3-3-3-3-3-3-3-3-|

g|-----------------------------------------------------------------|
d|-------------------------------------------------5-5-5-5-5-5-5-5-|
a|-2-2-2-2-2-2-2-2-5-5-5-5-5-5-5-5---------------------------------|
e|---------------------------------5-5-5-5-5-5-5-5-----------------|
[ Tab from: http://www.guitartabs.cc/tabs/d/dredg/zebra_skin_btab.html ]
Buffer x3 - A little bit of variations here.  Not going to tab them all out.
g|-----------------------------------------------------|
d|-----------------------------------------------------|
a|-2-2---2-2---2-2---2-2---7-7---7-7-------------------|
e|---------------------------------------5-5---5---5-6-|


Verse
g|-------------------------------------------------------|
d|-------------------------------------------------------|
a|-2-2---2-2---2-2---2-2---7-7---7-7---------------------|
e|---------------------------------------5-5---5-5---5-6-|

g|-------------------------------------------------------|
d|-------------------------------------7-7---7-7---------|
a|-2-2---2-2---2-2---2-2---------------------------------|
e|-------------------------0-0---0-0---------------------|

Chorus
g|-----------------------------------------------------------------|
d|-----------------------------------------------------------------|
a|-2-2-2-2-2-2-2-2-5-5-5-5-5-5-5-5---------------------------------|
e|---------------------------------5-5-5-5-5-5-5-5-3-3-3-3-3-3-3-3-|

g|-----------------------------------------------------------------|
d|-------------------------------------------------5-5-5-5-5-5-5-5-|
a|-2-2-2-2-2-2-2-2-5-5-5-5-5-5-5-5---------------------------------|
e|---------------------------------5-5-5-5-5-5-5-5-----------------|

 - No bass for a couple measures -

Chorus x2
g|-----------------------------------------------------------------|
d|-----------------------------------------------------------------|
a|-2-2-2-2-2-2-2-2-5-5-5-5-5-5-5-5---------------------------------|
e|---------------------------------5-5-5-5-5-5-5-5-3-3-3-3-3-3-3-3-|

g|-----------------------------------------------------------------|
d|-------------------------------------------------5-5-5-5-5-5-5-5-|
a|-2-2-2-2-2-2-2-2-5-5-5-5-5-5-5-5---------------------------------|
e|---------------------------------5-5-5-5-5-5-5-5-----------------|
Comments