Dredg - Symbol Song Chords & Tabs

 

Symbol Song Chords & Tabs

Dredg Chords & Tabs

Version: 1 Type: Tab 0 ratings
1 star 2 stars 3 stars 4 stars 5 stars
comments

Symbol Song Tab

Symbol Song
Leitmotif-Dredg
Drop D Tuning
-----------
Symbol Song
-----------

Intro 
e|------1212-101010---------------------------------------------------|
b|-1010-1010-101010-10h11-10-1010-10-1010-----------------------------|
g|-1010-------------10----10-1010-10-1010-9-10-12-12p10-9-----X11-----|
d|-0-0-----------------------0-0--------------------------------------|
a|-0-0-----------------------0-0--------------------------------------|
D|-0-0-----------------------0-0--------------------------------------|

Verse 
e|----------------------------------|---------------------------------|
b|-------------------------(11)-----|-1010-------------------11-------|
g|-1010-----10-9-12-10-9-10-10--X4--|-1010---10-9-12-10-9-10-10--X8---|
d|-0-0------0--0-0--0--0-0--0-------|-0-0----0--0-0--0--0-0--0--------|
a|----------------------------------|---------------------------------|
D|----------------------------------|---------------------------------|

e|--------------------------------------------------------------------|
b|--------------------------------------------------------------------|
g|-------10-10-10\9--9-------101010\9-9-------------------------------|
d|-10-10-x--x--x--x--x---9-9-x-x-x--x-x-------------------------------|
a|-10-10-10-10-10-10-10--9-9-9-9-9--9-9-------------------------------|
D|-10-10-10-10-10-10-10--9-9-9-9-9--9-9-------------------------------|

e|-------------------------------|---------------------------------|
b|--------------------------11---|-1010-------------------11-------|
g|-1010-----10-9-12-10-9-10-10---|-1010---10-9-12-10-9-10-10--X8---|
d|-0-0------0--0-0--0--0-0--0----|-0-0----0--0-0--0--0-0--0--------|
a|-------------------------------|---------------------------------|
D|-------------------------------|---------------------------------|

Chorus
e|-----------------------------------------------------------------------|
b|-------------------------------------------10101010--------------------|
g|-------10-10-10\9--9-------101010\9-9------x-x-x-x---------------------|
d|-10-10-x--x--x--x--x---9-9-x-x-x--x-x--8-8-8-8-8-8--0-00-0-00-0-00-0-X2|
a|-10-10-10-10-10-10-10--9-9-9-9-9--9-9--8-8-8-8-8-8--0-00-0-00-0-00-0---|
D|-10-10-10-10-10-10-10--9-9-9-9-9--9-9--8-8-8-8-8-8--0-00-0-00-0-00-0---|

e|------------------------------------------------------------|
b|-------------------------------------------101010\8-8-------|
g|-------10-10-10\9--9-------101010\9-9------x-x-x--x-x-------|
d|-10-10-x--x--x--x--x---9-9-x-x-x--x-x--8-8-8-8-8--8-8-------|
a|-10-10-10-10-10-10-10--9-9-9-9-9--9-9--8-8-8-8-8--8-8-------|
D|-10-10-10-10-10-10-10--9-9-9-9-9--9-9--8-8-8-8-8--8-8-------|
[ Tab from: http://www.guitartabs.cc/tabs/d/dredg/symbol_song_tab.html ]
e|------------------------------------------|
b|------------------------------------------|
g|------------------------------------------|
d|-0-00-000-0-00-000-0-00-000-0-00-000-0-0--|
a|-0-00-000-0-00-000-0-00-000-0-00-000-0-0--|
D|-0-00-000-0-00-000-0-00-000-0-00-000-0-0--|

Bridge
e|---------------------------------|
b|-----------------11-13-10--------|
g|-10-9-12-10-9-10-10-10-10--------|
d|-0--0-0--0--0-0--0--0--0--X3-----|
a|--------------------0--0---------|
D|--------------------0--0---------|

repeat verse

repeat chorus

----------------------
Movement I: @45N. 180W
----------------------

e|-----------------------------------------------------------------------|
b|-----------------------------------------------------------------------|
g|-xx-7-x-7-xx-1010-xx-10-x-10-xx-3-3-xx-3-x-3-xx-5-5-xx-5-x-5-x-7-7-----|
d|-xx-0-x-0-xx-0-0--xx-0--x-0--xx-0-0-xx-0-x-0-xx-0-0-xx-0-x-0-x-0-0-X2--|
a|-xx---x---xx-0-0--xx----x----xx-0-0-xx---x---xx-0-0-xx---x---x-0-0-----|
D|-------------0-0----------------0-0-------------0-0------------0-0-----|

e|-----------------------------------------------------------------------|
b|----101010---8-------------131313---11-----------666---5---------------|
g|-xx-7-7-7-x--7--xx-1010-xx-101010-x-10-xx-3-3-xx-333-x-3-xx-5-5-xx-----|
d|-xx-------x-----xx-0-0--xx--------x----xx-0-0-xx-----x---xx-0-0-xx-----|
a|-xx-------x-----xx-0-0--xx--------x----xx-0-0-xx-----x---xx-0-0-xx-----|
D|-------------------0-0--------------------0-0---------------0-0--------|

e|-----------------------------------------------------------------------|
b|-888---6-----------101010---8------------131313---11-----------666-----|
g|-555-x-5-xx-7-7-xx-7-7-7--x-7-xx-1010-xx-101010-x-10-xx-3-3-xx-333-x---|
d|-----x---xx-0-0-xx--------x---xx-0-0--xx--------x----xx-0-0-xx-----x---|
a|-----x---xx-0-0-xx--------x---xx-0-0--xx--------x----xx-0-0-xx-----x---|
D|------------0-0------------------0-0--------------------0-0------------|

e|-----------------------------------------------------------------------|
b|-5----------888---66-------101010--88--------131313--1111-------666-55-|
g|-3-xx-5-5-5-555-x-55-7-7-7-7-7-7---77-101010-101010--1010-3-3-3-333-33-|
d|---xx-0-0-0----------0-0-0-0-0-0-0-00-0-0-0--0-0-0-0-0-0--0-0-0-000000-|
a|---xx-0-0-0----------0-0-0------------0-0-0---------------0-0-0--------|
D|------0-0-0----------0-0-0------------0-0-0---------------0-0-0--------|

e|-----------------------------------------------------------------------|
b|-------888-66--------101010--8-8--------131313--1111-------666-55------|
g|-5-5-5-555-55--7-7-7-7-7-7---7-7-101010-101010--1010-3-3-3-333-33------|
d|-0-0-0-000000--0-0-0-0-0-0-0-0-0-0-0-0--0-0-0-0-0-0--0-0-0-000000------|
a|-0-0-0---------0-0-0-------------0-0-0---------------0-0-0-------------|
D|-0-0-0-----------------------------------------------------------------|

e|---------------------|
b|-------888-66--------|
g|-5-5-5-555-55-7-7----|
d|-0-0-0-000000-0-0----|
a|-0-0-0--------0-0----|
D|---------------------|
Comments