Dredg - Sorry But Its Over Chords & Tabs

 

Sorry But Its Over Chords & Tabs

Dredg Chords & Tabs

Version: 1 Type: Tab 0 ratings
1 star 2 stars 3 stars 4 stars 5 stars
comments

Sorry But Its Over Tab

Dredg   -   http://www.dredg.com/
Sorry But It's Over

These guys are an amazing band that do really original stuff. Check them out.
tab by Rob Scheidt

This is not perfect. But it should help u out.

Intro thing
e----------------------------------------------------------------
b----------------------------------------------------------------
g----------------------------------------------------------------
d----------------------------------------------------------------
a-9--9--9--9-9--9h10-10--10--1010--10h12-12--12--12-12--12p9-9-9-
d-9--9--9--9-9--9----9---9---9-9---9-----9---9---9--9---9----9-9-


Verse  - w/delay
e-----------------12---------------------------------------------
b----------------------------------------------------------------
g-14p12--12-12-------14--12----------14p12--12-12----12h14p12h14-
d----------------------------------------------------------------
a----------------------------------------------------------------
d----------------------------------------------------------------

[ Tab from: http://www.guitartabs.cc/tabs/d/dredg/sorry_but_its_over_tab.html ]
CHORUS
e----------------------------------------
b----------------------------------------
g----------------------------------------
d----------------------------------------
a--14-14--14-14-14--14-12-12--12-7-7-8-8-
d--14-14--14-13-13--13-12-12--12-7-7-8-8-


e---------------------------------------
b---------------------------------------
g---------------------------------------
d---------------------------------------
a--9-9--9h10-10-10h12-12--12p-9-9--9-9--
d--9-9--9-9--9--9--9--9---9---9-9--9-9--


ENDING   - something like this with delay
e----------------------------------------------------------------
b----------------------------------------------------------------
g-9--9--9-9-9-----9--9--9-9-9-----9--9--9-9-9---9--9--9-9-9------
d----------------------------------------------------------------
a----------------------------------------------------------------
d----------------------------------------------------------------

e----------------------------------------------------------------------
b----------------------------------------------------------------------
g-9--9--12p9-9---9--9--9-9-9----12--12--12-12-12---12--12p11-11-11-11--
d----------------------------------------------------------------------
a----------------------------------------------------------------------
d----------------------------------------------------------------------
Comments