Dredg - Bug Eyes Chords & Tabs

 

Bug Eyes Chords & Tabs

Dredg Chords & Tabs

Version: 1 Type: Tab 0 ratings
1 star 2 stars 3 stars 4 stars 5 stars
comments

Bug Eyes Tab

   
Title: Bug Eyes
Artist: Dredg
Album: Catch Without Arms
Tabbed by: Mark*3
Email me with any comments or fixes or stuff: itsmemarke@sbcglobal.net

Tuning: Standard

Intro x3
Distortion, heavy reverb
Fast picking:
e|-3-3-3-3-5-5-5-5-6-6-6-6-10-10-10-10-13-13-13-13-15-15-15-15-18-18-18-18-|
B|-------------------------------------------------------------------------|
G|-------------------------------------------------------------------------|
D|-------------------------------------------------------------------------|
A|-------------------------------------------------------------------------|
E|-------------------------------------------------------------------------|

Intro Kick In:
Distortion
e|-------------------------------------------------------------------------|
B|-8-8-8-8--6-6-6-6--8-8-8-8--6-6-6-6--------------------------------------|
G|--------------------------------------------------------3----------------|
D|-8-8-8-8--7-7-7-7--8-8-8-8--7-7-7-7-----5---------------3-----------3----|
A|-6-6-6-6--6-6-6-6--6-6-6-6--6-6-6-6-----5---------------1-----------3----|
E|----------------------------------------3---------------------------1----|
[ Tab from: http://www.guitartabs.cc/tabs/d/dredg/bug_eyes_tab.html ]
Verse:
Light distortion
e|-----------------------------------------------------------------------------------------|
B|-8-8-8-8--6-6-6-6--8-8-8-8--6-6-6-6---11-11-11-11--10-10-10-10--11-11-11-11--10-10-10-10-|
G|-----------------------------------------------------------------------------------------|
D|-8-8-8-8--7-7-7-7--8-8-8-8--7-7-7-7---8--8--8--8---7--7--7--7---8--8--8--8---7--7--7--7--|
A|-----------------------------------------------------------------------------------------|
E|-----------------------------------------------------------------------------------------|
  Bring back those good old days...

Pre-Chorus:
Distortion, reverb:                       Heavy Distortion:
e|-3-3-3-3-5-5-5-5-6-6-6-6-10-10-10-10-------------------------------------|
B|-------------------------------------------------------------------------|
G|-------------------------------------------------------------------------|
D|----------------------------------------8-----------------3--------------|
A|----------------------------------------8-----------------3--------------|
E|----------------------------------------6-----------------1--------------|
  Gonna need a home...
Chorus:
Heavy Distortion
e|-----X---------------X---------------------------------------------------------|
B|-----4---------------X---------------------------------------------------------|
G|-----0---------------3------------------------3-----------------2--------------|
D|-----5---------------X------------------------3-----------------X--------------|
A|-----6---------------X------------------------X-----------------3--------------|
E|-----X---------------3------------------------1-----------------1--------------|
  Your journey back to birth is haunting you...

Bridge: Same as Chorus but with light distortion

That's about it. Listen to this great song, and play along. I hope it works out for you.
Comments