Dreaming - Let It Burn Chords & Tabs

 

Let It Burn Chords & Tabs

Dreaming Chords & Tabs

Version: 1 Type: Tab 0 ratings
1 star 2 stars 3 stars 4 stars 5 stars
comments

Let It Burn Tab

   
The Dreaming is a new band.  After Stabbing Westward broke up, Christopher Hall,
lead singer, created this little project.  They have an EP available that can be
ordered from their website:
http://www.thedreamingonline.com

This is a fairly simple song to learn.  The chord progression is same throughout
the song.  I'm pretty sure it is in Drop-D tuning, but it doesn't sound bad in
standard.  You have to play the bridge and outro up an octave though.

Main chords:
Use these on the intro and chorus with some distortion.  I hear a bit
of a slide down from the C to G, that is why I put it up on 10.
    Dm                  Dm7       C                  G
E|--------------------------------------------------------------|
B|--------------------------------------------------------------|
G|--7-------------------5---------------------------------------|
D|--7-------------------7---------10----------------\5----------|
A|--5-------------------5---------10----------------\5----------|
D|--------------------------------10----------------\5----------|

Add this on the intro and final chorus before the outro:
E|-------13---12---10---8b10b10---------------------------------|
B|---------------------------------------------------10b11b11---|
G|--------------------------------9h10p9-9--9h10p9-9------------|
D|--12----------------------------------------------------------|
A|--------------------------------------------------------------|
D|--------------------------------------------------------------|


Verse:

This guitar part is in the second half of the first verse and all the
second verse.  Play it with a wah effect:
						    Add this once
						    in a while
E|------------------------------------------------|-------------|
B|------6---5---6---------------------8---5---8---|--10b11b11---|
G|------------------------------------------------|-------------|
D|--0-----------------------------0---------------|-------------|
A|------------------------------------------------|-------------|
D|------------------------------------------------|-------------|
[ Tab from: http://www.guitartabs.cc/tabs/d/dreaming/let_it_burn_tab.html ]
Bridge & outro:
Drop-D tuning
E|--------------------------------------------------------------|
B|--------------------------------------------------------------|
G|--------------------------------------------------------------|
D|--------------------------------------------------------------|
A|-------------------------------3h5-0h3h5-0h3h5-3h5-0h3h5-0----|
D|--0---0-0h2h3-0h2h3-0-7p5s3-0------------------------------2h3|

Standard tuning
E|--------------------------------------------------------------|
B|-------------------------------1h3---1h3---1h3-1h3---1h3------|
G|----------------------2p0----------2-----2---------2-----2----|
D|--0---0-0h2h3-0h2h3-0-----3-0------------------------------2h3|
A|--------------------------------------------------------------|
E|--------------------------------------------------------------|

This is played at the 2nd part of the bridge with some delay or some weird effect.
I think I can hear it faintly over the rest of the bridge and outro part also.

E|--------------------------------------------------------------------------|
B|--------------------------------------------------------------------------|
G|7h9h10-7h9h10-7h9h10-7h9h10-7h9h10-9h10h12-9h10h12-9h10h12-9h10h12-9h10h12|
D|--------------------------------------------------------------------------|
A|--------------------------------------------------------------------------|
D|--------------------------------------------------------------------------|

Lyrics

[Intro]

Burn...
Burn...

[1st Verse]

All my memories
Of a life forgotten,
The pictures, the letters that we wrote...

[enter verse guitar]

Are hidden in the dark,
Locked away forever,
Buried in a shoebox labeled burn.

[Chorus]
Let it burn...
Burn away the memories,
Let it burn...
Burn away the pain,
Let it burn...
'til there's nothing left but ashes,
Let it burn...
and the ashes blow away.
Let it burn...

[2nd Verse]
[verse guitar all the way through]
Some nights when it rains
I dig out your old pictures
And dance with memories sour now with age.
I wish I could let go
And walk out of this prison,
The shrine I have built around my pain.

[Chorus]

[Bridge]
Let it burn...
Let it burn...
Let it burn...

[2nd Part of Bridge]
I cannot be free
until there's nothing left but ashes
of a shoebox labeled burn.

[Last Chorus]

[Outro]
Let it burn...
Comments