Dream Theatre - Ytse Jam Chords & Tabs

 

Ytse Jam Chords & Tabs

Dream Theatre Chords & Tabs

Version: 1 Type: Tab 0 ratings
1 star 2 stars 3 stars 4 stars 5 stars
comments

Ytse Jam Tab

   
YTSE JAM - DREAM THEATRE! (go atty!)

sorry - this one is better, i fixed up some small mistakes

INTRO:
         bar

RIFF:
----------------------------------------------------------
-3-2-3---5-3-5---6-5-6---8-6-8---6-5-6---5-3-5---3-2-3----
----------------------------------------------------------
-------0-------0----------------------------------------0-
----------------------------------------------------------
----------------------------------------------------------

--------------------------------
--------------------------------
--------------------------------
-8-7-8---7-5-7---5-3-5---3-2-3--   x6
--------------------------------
-slight palm mute---------------
 last 2 times played

-----------------------------------------------------------
-----------------------------------------------------------
-----------------------------------------------------------
-2---2---3---2---2---------2---2-------------0-2-3---------
-0---0---1---0---0---1-4---0---0---1---0-1-4---------------
-----------3-------------------------3---------------------
                     pm .              . . . . . .

-----------------------------------------------------------
-----------------------------------------------------------
---------------------------------------------1-1-----------
-2---2-2-2---2-2-3-3-0-0-2---2-2-2---2-2-3-3---------------
-----------------------------------------------------------
-----------------------------------------------------------
 .   . . .   . . . . . . .   . . .   . . . . . .

-----------------------------------------------------------
-----------------------------------------------------------
---------------------------------1-1-2-2-4-4-5-5-----------
-2---2-2-2---2-2-3-3-0-0-2-2-3-3---------------------------
-----------------------------------------------------------
-----------------------------------------------------------
 .   . . .   . . . . . . . . . . . . . . . . . .

---------------------------------------------------------------------------
--------------------------A.H----------------------------------------------
----------10-------9----------------------------------------------------
--7---7-7------7-7-----7-7-----8-8-8-8-10-10-10-10-12-12-12-12-11-11-11-11-
---------------------------------------------------------------------------
---------------------------------------------------------------------------
  .   . .      . .     . .     . . . .  .  .  .  .  .  .  .  .  .  .  .  .

 ----------------------------------------
 ---------------------8h10p8-------------
 -10-10-10-10-9-9-9-9--------10-9-7------
 -----------------------------------10-7-
 ----------------------------------------
 ----------------------------------------
   .  .  .  . . . . .

 --------------------------------------------------------------------------
 --------------------------------------------------------------------------
 ------------------------A.H-----------------------------------------------
 --------10-------9-----------------------------------------------------
 -7--7-7------7-7-----7-7------8-8-8-8-10-10-10-10-12-12-12-12-11-11-11-11-
 --------------------------------------------------------------------------
  .  . .      . .     . .      . . . .  .  .  .  .  .  .  .  .  .  .  .  .

 -----------------------------------------|
 -----------------------------------------|
 ---------------------7h9p7---------------|
 -10-10-10-10-9-9-9-9-------10-9-7--------|
 ----------------------------------10-7---|
 -----------------------------------------|
   .  .  .  . . . . .

-----------------------------------------------------------
-----------------------------------------------------------
-----------------------------------------------------------
-2---2---3---2---2---------2---2-------------0-2-3---------
-0-000-001---0-000---1-4---0-000---1---0-1-4---------------
-----------3-------------------------3---------------------
   ..  ..      ..    . .     ..          . . . . .

-----------------------------------------------------------
-----------------------------------------------------------
---------------------------------------------1-1-----------
-2---2-2-2---2-2-3-3-0-0-2---2-2-2---2-2-3-3---------------
-----------------------------------------------------------
-----------------------------------------------------------
 .   . . .   . . . . . . .   . . .   . . . . . .


-----------------------------------------------------------
-----------------------------------------------------------
---------------------------------1-1-2-2-4-4-5-5-----------
-2---2-2-2---2-2-3-3-0-0-2-2-3-3---------------------------
-----------------------------------------------------------
-----------------------------------------------------------
 .   . . .   . . . . . . . . . . . . . . . . . .


                           
-----------------------------------10-12-13----
-10-11-8-10-11-14-10-11-8-10-11-14-------------
-//----tremelo-pick-all-notes--------------//--
-----------------------------------------------
-----------------------------------------------
-----------------------------------------------

-12-13-10-12-13-16-12-13-10-12-13-16-17-19-20----
-//--tremelo pick all notes----------------//----
-------------------------------------------------
-------------------------------------------------
-------------------------------------------------
-------------------------------------------------

Then Riff twice then:
----------------------1---0-----------------------------------
------3-----3-----3---------------3---3---3---3---3-----------
----2-----0-----2---2---2---2---2---3---2---0-----------------
--0-----2-----3---------------0-----------------3---2---------
--------------------------------------------------------------
--------------------------------------------------------------

----------------------1---0-----------------------------------
------3-----3-----3---------------3---3---3---3---3-----------
----2-----0-----2---2---2---2---2---3---2---0-----------------
--0-----2-----3---------------0-----------------3---2---------
--------------------------------------------------------------
--------------------------------------------------------------

--------------------------------------------------------------
-------------6-5----------------------------------------------
-7---5---2---5-5----------------------------------------------
-7---5---2-5-5-5---0-0-0-0-8-0-0-0-7-0-0-0-5-0-0-0-3----------
-5---3---0-5-3-3-------------------------------------3--------
-----------3--------------------------------------------------

--------------------
-------------6-5----
-7---5---2---5-5-7--
-7---5---2-5-5-5-7--
-5---3---0-5-3-3-5--
-----------3--------

--------------------------------------------------------------
--------------------------------------------------------------
--------------------------------------------------------------
-8-7-8---7----7-----------------------------------------------
-----------10-----10-8-10---8-7-8---7-5-7---5-4-5---4---4-----
------------------------------------------------------6-------

--------------------------------------------------------------
---------------------------3----------------------------------
-2-------------------------2-------------2/32----------------
-2---3---2---3-2---3---2---0---------3-2-------3--------------
-0-00--00--001-0-00--00--0---1-3-5-4--------------------------
-----------------------------///////--------------------------
                            trem pick
--------------------------------------------------------------
---------------------------3----------------------------------
-2-------------------------2-----------A.H--------------------
-2---3---2---3-2---3---2---0---------3---------------------
-0-00--00--001-0-00--00--0---1-3-5-4--------------------------
----------------------------/////////-------------------------
                            trem pick 
Backing for Keyboard solo:
--------------------------------------------------------------
--------------------------------------------------------------
-2------------3---2/32----2-----------4-3---2/32------------
-2------------3---------3--2-----------2-1---------3----------
-0---0-000-0001------------0--0-000-000-----------------------
--------------------------------------------------------------

GUITAR SOLO : not for the faint hearted!
(Transcribed by : Zero Assoluto) thanks mate!
( i also think this may have the bass solo incorporated into it...)
E|------------------------------|--------------------------------------
B|------------------------------|--------------------------x/11~-10-10-
G|-----10~-----9~-----8~-----7~-|-----x/12~------x/14~-7-8-------------
D|-7-8-----5-8----5-7----7-8----|-7-8-------7-10-----------------------
A|------------------------------|--------------------------------------
E|------------------------------|--------------------------------------

     Tapped Harmonic
          T
E|--------------------|----x/10x-x/10-------8---------------------------
B|--9-9~-{21}----8-10-|-11-------------11p10---10--6/8-------------------
G|-------------7------|--------------------------------10----------------
D|--------------------|-----------------------------------10-8-10x------
A|--------------------|---------------------------------------------x/10-
E|--------------------|--------------------------------------------------

[ Tab from: http://www.guitartabs.cc/tabs/d/dream_theatre/ytse_jam_tab.html ]
E|--------------8/10-10-8-----8-6--------------|-----------------------
B|---------------------------------5p5---------|-----------------------
G|-------8--7-8-----------5-7------7p5-5-5---0-|-----------------------
D|-10-12-------------------------------5h8p5-0-|-x-----------12-15-----
A|---------------------------------------------|-x/12-15-----------13--
E|---------------------------------------------|---------15------------


E|-----------------------------15/17-------15/17-17~-1513/15x----------
B|-----------------15-------15----------------------------------13b15r13-
G|----14--------12-------12----------15-15-------------------------------
D|-15--------15-------15-------------------------------------------------
A|-------13--------------------------------------------------------------
E|-----------------------------------------------------------------------


E|-------------------------------------22-------20-------18-------17----
B|-------------------------------20-------------------------------------
G|-15-12-------------------19-------19----1917----1715----1514----14~
D|-------15----------17-------17----------------------------------------
A|----------13/15x-----17----------------------------------------------
E|----------------------------------------------------------------------


E|---------------------|-----------------------------------------------
B|---------------13-15-|-16~-13-x/10-11-13-x/15~----------------------
G|--14/1712--12-------|--------------------------14-12-10-------------
D|---------------------|-----------------------------------14-12-10----
A|---------------------|--------------------------------------------13-
E|---------------------|-----------------------------------------------


                 T     T     T
E|--------------------------------20b22-23-20--18p17p15-----------------
B|-----------15-20p15-22p15-23p15------------------------18p16p15-16-18-
G|----------------------------------------------------------------------
D|-------12~------------------------------------------------------------
A|-12-10----------------------------------------------------------------
E|----------------------------------------------------------------------

          Repeat this 4 times, very fast!
          |_______________|                 (i think this is start of bass solo)
E|-----------------------------------------|---------------------------
B|-16b18--18-15-16-18-16-15-----------x/20~|---------------------------
G|---------------------------17p15-14------|-x/------------------------
D|-----------------------------------------|-x/------------------20-19-
A|-----------------------------------------|------------18-17-15-------
E|-----------------------------------------|---18-17-15----------------
                   

E|----------------------23-20-22~--18-22-18-20-22-20-18--20-17-18-20-18-
B|-------------23-22-20-------------------------------------------------
G|----20-19-17----------------------------------------------------------
D|-17-------------------------------------------------------------------
A|----------------------------------------------------------------------
E|----------------------------------------------------------------------

 
E|-17--18-15-17-18-17-15-------------------------------------------------
B|-----------------------18-15-16-18-16-15-------------------------------
G|-----------------------------------------17-14-15-17-15-14-------------
D|-----------------------------------------------------------17-13-15-17-
A|-----------------------------------------------------------------------
E|-----------------------------------------------------------------------


E|-------------------------------------------|----|
B|-------------------------------------------|----|
G|-------------------------------------------|----|
D|-15-13-------------------------------------|----|
A|-------17-13-15-17-15-13-------------------|----|
E|-------------------------17-13-15-17-15-13-|-15~|

Backing of guitar solo:
---------------------------------
---------------------------------
---------------------------------
---------------------------------
-5------------6-5/653-5-3------
-3---3-333-3334-------------6-4--
-----------------------------------------
-----------------------------------------
-----------------------------------------
--------------6---5/653-5-3------------
-5------------4---------------6-5-6-5-5--
-3---3-333-333--------------------4-3-3--

between solos: C5 (x355xx)

backing of Bass solo:
------------------------------------
------------------------------------
-7----------------------------------
-7------------8---7/875-7-5-------
-5---5-555-5556---------------8-6---
------------------------------------

------------------------------------------
------------------------------------------
-7------------8---7/875-7-5------8-7-7--
-7------------6---------------8-7--8-7-7--
-5---5-555-555---------------------6-5-5--
------------------------------------------

after drum solo:
----------------------------------------------------
----------------------------------------------------
-----------5-------7-6-6-------------5--------------
-----5-7-6---------7-6-6-------5-7-6-----------7-6--
-5-8---------8-5---5-4-4---5-8---------8-5-5-8------
----------------------------------------------------

----------------------------------------------------
----------------------------------------------------
-----------5-------7-6-6-------------5--------------
-----5-7-6---------7-6-6-------5-7-6-----------7-6--
-5-8---------8-5---5-4-4---5-8---------8-5-5-8------
----------------------------------------------------

-----------------------------------------------------------------
-------------------6---6---6---6---6---6-------6-------4---------
-4---5---2---3---3---3---3---2---2---2---------5-------3---------
-2---2---0---0-----------------------------3-3-3---1-1-1---------
-----------------------------------------------------------------
-----------------------------------------------------------------

------------------
------------------
-----------5------
-----5-7-6--------
-5-8---------8-5--
------------------

-----------------------------------------------------------------
-------------------6---6---6---6---6---6-------6-------4---------
-4---5---2---3---3---3---3---2---2---2---------5-------3---------
-2---2---0---0-----------------------------3-3-3---1-1-1---------
-----------------------------------------------------------------
-----------------------------------------------------------------

---------------------
---------------6---6-
-4---2---5---3---2---
-2---0---3----------- x2
---------------------
---------------------

-----------------------------------------------
-----------------------------------------------
-------4-4---------4-4---------2-2---------2-2-
-2-2-2-2-2---2-2-2-2-2---0-0-0-0-0---0-0-0-0-0-
-----------------------------------------------
-----------------------------------------------

----------------------------------
---------------------------6---6--
-------5-5---------5-5---3---2----
-3-3-3-3-3---3-3-3-3-3------------
----------------------------------
----------------------------------

---7-------5-------8----------7-------5-------3-------
-----8-------5-------8----------8-------5-------3-----
-------9-------7-------10---------9-------7-------5---
------------------------------------------------------
-7-------5-------8----------7-------5-------3---------
------------------------------------------------------

---------------------------------
---------------------------------
---------------------------------
----------/7---------------/7-/8-
-/7-/5-/8----/8---/7-/5-/8-------
---------------------------------


----------------------12-13-17-18--|--------------------------------
--------10-8-6-8-------------------|--------------------------------
-9-7-10----------9-7---------------|-4---4---4-2-4---4---4-5-4---4--
-----------------------------------|-2---2---2-0-2---2---2-3-2---2--
-----------------------------------|--------------------------------
-----------------------------------|--------------------------------
                    w/ wide vibrato

----------------------------------------------------------
-3-2-3---5-3-5---6-5-6---8-6-8---6-5-6---5-3-5---3-2-3----
----------------------------------------------------------
-------0-------0----------------------------------------0-
----------------------------------------------------------
----------------------------------------------------------

--------------------------------
--------------------------------
--------------------------------
-8-7-8---7-5-7---5-3-5---3-2-3--   
--------------------------------
--------------------------------

----------------------------------------------------------
-3-2-3---5-3-5---6-5-6---8-6-8---6-5-6---5-3-5---3-2-3----
----------------------------------------------------------
-------0-------0----------------------------------------0-
----------------------------------------------------------
----------------------------------------------------------

--------------------------------------------------------------
--------------------------------------------------------------
--------------------------------------------------------------
-8-7-8---7----7-----------------------------------------------
-----------10-----10-8-10---8-7-8---7-5-7---5-4-5---4---4-----
------------------------------------------------------6-------

-----------------
-----------------
-9---3---2---8--
-9---3---2---8--
-7---1---0---6--
--------------6--

--------------------------
--------------------------
-----------5-------7-6-6--
-----5-7-6---------7-6-6--
-5-8---------8-5---5-4-4--
--------------------------

Enjoy! This tab made from bits and pieces of other tabs, so thanks to whoever 
originally made these tabs! Making the world easier for us! 
Email me at s_starbuck100@hotmail.com with any commentS! Ciao!
Comments