Dream Theater - You Not Me Chords & Tabs

 

You Not Me Chords & Tabs

Dream Theater Chords & Tabs

Version: 1 Type: Bass Tab 0 ratings
1 star 2 stars 3 stars 4 stars 5 stars
comments

You Not Me Bass Tab

Band- Dream Theater
Song- You Not Me

G|-------------------------------------|--------------------------------|
D|-------------------------------------|--------------------------------|
A|-------------------------------------|--------------------------------|
E|-0h2--2-2-2~~-0-2~2--0--2~-0--2-5~~~-|-0h2--2-2-2~~-0-2~2--0--2~-0--2-|


G|------|-------------------------------------|-------------------------|
D|------|-------------------------------------|-------------------------|
A|------|-------------------------------------|-----------------------4-|
E|-5~~~-|-0h2--2-2-2~~-0-2~2--0--2~-0--2-5~~~-|-0h2--2-2-2~~-0-2--0-2---|


G|---------|
D|---------|
A|-----3---|
E|-0-2---2-|

 
  Verse 1 & 2
 (Only Bass with little distortion)  
G|-------------------------------------|--------------------------------|
D|-------------------------------------|--------------------------------|
A|-------------------------------------|--------------------------------|
E|-0h2-2-2-2-2--0--2-2--0--2-2--0-2-5~-|-0h2-2-2-2-2--0--2-2--0--2-2--0-|


G|------|-------------------------------------|-------------------------|
D|------|-------------------------------------|-------------------------|
A|------|-------------------------------------|-------------------------|
E|-2-5~-|-0h2-2-2-2-2--0--2-2--0--2-2--0-2-5~-|-0h2--2-2-2-2--0--2-2--0-|


G|--------------------|-------------------------------------|-----------|
D|--------------------|-------------------------------------|-----------|
A|----------4-----3---|-------------------------------------|-----------|
E|-2-2--0-2---0-2---2-|-0h2-2-2-2-2--0--2-2--0--2-2--0-2-5~-|-0h2-2-2-2-|


G|---------------------------|------------------------------------------|
D|---------------------------|------------------------------------------|
A|---------------------------|------------------------------------------|
E|-2--0--2-2--0--2-2--0-2-5~-|-0h2-2-2-2-2--0--2-2--0--2-2--0-2-5~------|


G|----------------|
D|----------------|
A|----------------|
E|-0h2-2-2-2--0-2-|


  Bridge
  "That's alright I'm okay..."
G|---------------------------2------------------------------------------|
D|-2h4-4-4-4--4-4-4-4-4--2-4--------------------------------------------|
A|------------------------------0-0-0-0-0--0-0-0--0--0-0-0--2h4-4-4-4---|
E|----------------------------------------------------------------------|


G|---------------------------------|
D|---------------------------------|
A|-4-4-4--4--4-4-4-0h2-2-2-2-2-0-2-|
E|---------------------------------|


  Chorus
  "It's all about you... not me..."
G|----------------------------------------------------------------------|
D|-------------4-2-4-6------------4-2-4-6------------4-2-4-6------------|
A|----------------------------------------------------------------------|
E|-4--4-4-4-4----------4--4-4-4-4---------2--2-2-2-2---------0--0-0-0-0-|


G|----------------------------------------------------------------------|
D|----------------4-2-4-6-----------------------------------------------|
A|------------------------2--2-2-2-2-4-0-2---6--6-6-6--7--7-7-7-7-------|
E|-0-2-4--4-4-4-4--------------------------2----------------------------|


G|--------------------------------------------------------|
D|--------------------------------------------------------|
A|--------------------------------------------------------|
E|-4--------2--------0--------2--------4--------2-------0-|


G|----------------------------------------------------------------------|
D|----------------------------------------------------------------------|
A|----------------------------------------------------------------------|
E|----------------------------------------------------------------------|



[ Tab from: http://www.guitartabs.cc/tabs/d/dream_theater/you_not_me_btab.html ]
  After Chorus...
G|----------------------------------------------------------------------|
D|----------------------------------------------------------------------|
A|----------------------------------------------------------------------|
E|-3\2--3\2--3\2--3\2-0--3\2--3\2--3\2--3\2-0--3\2--3\2--3\2--3\2-0-0-0-|


-Verse 2 - repeat verse 1
 "You're building my prison brick by brick..."


-Repeat Chorus


  Petrucci's Solo
G|----------------------------------------------------------------------|
D|----------------------------------------------------------------------|
A|-2-4-4-4-4~\-----------------------------2-4-4-4-4~\------------------|
E|----------------------------------------------------------------------|


G|----------------------------------------------------------------------|
D|----------------------------------------------------------------------|
A|-2-4-4-4-4~\------0-2-2-2-2-2-2-2-2-2-2----2-4-4-4-4------------------|
E|----------------------------------------------------------------------|


-Repeat Bridge


  Chorus
  "It's all about you... not me..."
G|----------------------------------------------------------------------|
D|-------------4-2-4-6------------4-2-4-6------------4-2-4-6------------|
A|----------------------------------------------------------------------|
E|-4--4-4-4-4----------4--4-4-4-4---------2--2-2-2-2---------0--0-0-0-0-|


G|----------------------------------------------------------------------|
D|----------------4-2-4-6-----------------------------------------------|
A|------------------------2--2-2-2-2-4-0-2---6--6-6-6------7--7-7-7-7---|
E|-0-2-4--4-4-4-4--------------------------2----------------------------|


G|----------------------------------------------------------------------|
D|----------------------------------------------------------------------|
A|----------------------------------------------------------------------|
E|-4--------2--------0--------2--------4--------2--------0--------2-----|


G|------------------------|
D|------------------------|
A|----4--------2--------0-|
E|------------------------|


  To finish...
G|----------------------------------------------------------------------|
D|----------------------------------------------------------------------|
A|----------------------------------------------------------------------|
E|-3\2--3\2--3\2--3\2-0--3\2--3\2--3\2--3\2-0--3\2--3\2--3\2--3\2-0-----|


G|----------------------------------------------------------------------|
D|----------------------------------------------------------------------|
A|----------------------------------------------------------------------|
E|-3\2--3\2--3\2--3\2-0--3\2--3\2--3\2--3\2-0--3\2--3\2--3\2--3\2-0-----|


G|----------------------------------------------------------------------|
D|----------------------------------------------------------------------|
A|----------------------------------------------------------------------|
E|-3\2--3\2--3\2--3\2-0--3\2--3\2--3\2--3\2-0--3\2--3\2--3\2--3\2-0-----|


G|----------------------------------------------------------------------|
D|----------------------------------------------------------------------|
A|----------------------------------------------------------------------|
E|-3\2--3\2--3\2--3\2-0--3\2--3\2--3\2--3\2-0--3\2--3\2--3\2--3\2-0-----|

 (here the things change)
G|----------------------------------------------------------------------|
D|----------------------------------------------------------------------|
A|----------------------------------------------------------------------|
E|-3\2--3\2--3\2--3\2-0-0-0-0--3\2--3\2--3\2--3\2-0-0-0-0--3\2--3\2--3\2|

G|------------------------------------------|
D|------------------------------------------|
A|------------------------------------------|
E|--3\2-0-0-0-0--3\2--3\2--3\2--3\2-0-0-0-0-|
Comments