Dream Theater - War Inside My Head Chords & Tabs

 

War Inside My Head Chords & Tabs

Dream Theater Chords & Tabs

Version: 1 Type: Bass Tab 0 ratings
1 star 2 stars 3 stars 4 stars 5 stars
comments

War Inside My Head Bass Tab

   
Band- Dream Theater
Song- War Inside My Head

Gtr I (B E A D G C) - 'John Myung :: Six String Bass [CGDAEB]'

    Q.=135
   12/8
    Gtr I
    E E E E E E E E E E E E  8x E E E E Q  E E E E Q    E E E E Q  E E E E Q
||---------------------------||-----------------------|------------------------|
||o-------------------------o||-----------------------|------------------------|
||---------------------------||-----------------------|------------------------|
||---------------------------||-----------------------|------------------------|
||o-------------------------o||-----------------------|------------------------|
||--4-4-4-4---4---4-4-4-4-4--||-4-4-4-4------4-4-4----|-4-4-4-4------4-4-4-----|


  E E E E Q  E E E E Q    H.      H.        E E E E Q  E E E E Q
|-----------------------|-----------------|------------------------|
|-----------------------|-----------------|------------------------|
|-----------------------|-----------------|------------------------|
|-----------------------|-----------------|------------------------|
|-----------------------|-5-------4-------|------------------------|
|-4-4-4-4------4-4-4----|-----------------|-4-4-4-4------4-4-4-----|


  E E E E Q  E E E E Q    E E E E Q  E E E E Q    Q.   Q.   Q.   Q.
|-----------------------|-----------------------|----------------------|
|-----------------------|-----------------------|----------------------|
|-----------------------|-----------------------|----------------------|
|-----------------------|-----------------------|-5---------4----------|
|-----------------------|-----------------------|------6---------5-----|
|-4-4-4-4------4-4-4----|-4-4-4-4------4-4-4----|----------------------|


    E E E Q  E Q  H      E E E Q  E Q  Q  Q    E E E Q  E Q  H
||---------------------|---------------------|--------------------|
||o--------------------|---------------------|--------------------|
||---------------------|---------------------|--------------------|
||---------------------|------------5-----4--|--------------------|
||o------------0--2----|---------------6-----|------------0--2----|
||--4-4-4-4--4---------|-4-4-4-4--4----------|-4-4-4-4--4---------|


  E E E Q  E Q  Q  Q   4x E E E E E E E E E E E E   E E E E E E E E E E E E
|----------------------||-------------------------|--------------------------|
|---------------------o||-------------------------|--------------------------|
|----------------------||-------------------------|--------------------------|
|----------------------||-------------------------|--------------------------|
|------------5--4--2--o||-------------------------|--------------------------|
|-4-4-4-4--4-----------||-1-1-1-1-1-1-1-1-1-1-1-1-|-1-1-1-1-1-1-1-1-1-1-1-1--|


  E E E E E E E E E E E E   E E E E E E E E E E E E   E E E E E E E E E E E E
|-------------------------|-------------------------|--------------------------|
|-------------------------|-------------------------|--------------------------|
|-------------------------|-------------------------|--------------------------|
|-------------------------|-------------------------|--------------------------|
|-------------------------|-------------------------|--------------------------|
|-1-1-1-1-1-1-1-1-1-1-1-1-|-1-1-1-1-1-1-1-1-1-1-1-1-|-1-1-1-1-1-1-1-1-1-1-1-1--|


  E E E E E E E E E E E E   E E E E E E E E E E E E   Q.   Q.   Q.   Q.
|-------------------------|-------------------------|----------------------|
|-------------------------|-------------------------|----------------------|
|-------------------------|-------------------------|----------------------|
|-------------------------|-------------------------|----------------------|
|-------------------------|-------------------------|-7----6----5----4-----|
|-1-1-1-1-1-1-1-1-1-1-1-1-|-1-1-1-1-1-1-1-1-1-1-1-1-|----------------------|


    E E E Q  E Q  H      E E E Q  E Q  Q  Q    E E E Q  E Q  H
||---------------------|---------------------|--------------------|
||o--------------------|---------------------|--------------------|
||---------------------|---------------------|--------------------|
||---------------------|------------5-----4--|--------------------|
||o------------0--2----|---------------6-----|------------0--2----|
||--4-4-4-4--4---------|-4-4-4-4--4----------|-4-4-4-4--4---------|

[ Tab from: http://www.guitartabs.cc/tabs/d/dream_theater/war_inside_my_head_btab.html ]
  E E E Q  E Q  Q  Q   4x E E E E E E E E E E E E   E E E E E E E E E E E E
|----------------------||-------------------------|-------------------------|
|---------------------o||-------------------------|-------------------------|
|----------------------||-------------------------|-------------------------|
|----------------------||-------------------------|-------------------------|
|------------5--4--2--o||-------------------------|-------------------------|
|-4-4-4-4--4-----------||-1-1-1-1-1-1-1-1-1-1-1-1-|-1-1-1-1-1-1-1-1-1-1-1-1-|


  E E E E E E E E E E E E   E E E E E E E E E E E E   E E E E E E E E E E E E
|-------------------------|-------------------------|-------------------------|
|-------------------------|-------------------------|-------------------------|
|-------------------------|-------------------------|-------------------------|
|-------------------------|-------------------------|-------------------------|
|-------------------------|-------------------------|-------------------------|
|-1-1-1-1-1-1-1-1-1-1-1-1-|-1-1-1-1-1-1-1-1-1-1-1-1-|-1-1-1-1-1-1-1-1-1-1-1-1-|


  E E E E E E E E E E E E   E E E E E E E E E E E E   Q.   Q.   Q.   Q.
|-------------------------|-------------------------|---------------------|
|-------------------------|-------------------------|---------------------|
|-------------------------|-------------------------|---------------------|
|-------------------------|-------------------------|---------------------|
|-------------------------|-------------------------|-7----6----5----4----|
|-1-1-1-1-1-1-1-1-1-1-1-1-|-1-1-1-1-1-1-1-1-1-1-1-1-|---------------------|


  E E E E E E E E E E E E   E E E E E E E E E E E E   E E E E E E E E E E E E
|-------------------------|-------------------------|-------------------------|
|-------------------------|-------------------------|-------------------------|
|-------------------------|-------------------------|-------------------------|
|-------------------------|-------------------------|-------------------------|
|-------------------------|-2-2-2-2-2-2-2-2-2-2-2-2-|-------------------------|
|-1-1-1-1-1-1-1-1-1-1-1-1-|-------------------------|-4-4-4-4-4-4-4-4-4-4-4-4-|


  E E E E E E E E E E E E   E E E E E E E E E E E E   E E E E E E E E E E E E
|-------------------------|-------------------------|-------------------------|
|-------------------------|-------------------------|-------------------------|
|-------------------------|-------------------------|-------------------------|
|-------------------------|-------------------------|-------------------------|
|-2-2-2-2-2-2-3-3-3-3-3-3-|-4-4-4-4-4-4-4-4-4-4-4-4-|-2-2-2-2-2-2-2-2-2-2-2-2-|
|-------------------------|-------------------------|-------------------------|


  E E E E E E E E E E E E   E E E E E E E E E E E E
|-------------------------|-------------------------*|
|-------------------------|-------------------------*|
|-------------------------|-------------------------*|
|-------------------------|-------------------------*|
|-1-1-1-1-1-1-1-1-1-1-1-1-|-2-2-2-2-2-2-2-2-2-2-2-2-*|
|-------------------------|-------------------------*|


Duration Legend
---------------
W - whole; H - half; Q - quarter; E - 8th; S - 16th; T - 32nd; X - 64th; a - acciaccatura
+ - note tied to previous; . - note dotted; .. - note double dotted
Uncapitalized letters represent notes that are staccato (1/2 duration)
Irregular groupings are notated above the duration line
Duration letters will always appear directly above the note/fret number it represents the
duration for.  Duration letters with no fret number below them represent rests.  Multi-
bar rests are notated in the form Wxn, where n is the number of bars to rest for.  Low
melody durations appear below the staff

Tablature Legend
----------------
 h   - hammer-on
 p   - pull-off
 b   - bend
 pb  - pre-bend
 r   - bend release (if no number after the r, then release immediately)
 /\  - slide into or out of (from/to "nowhere")
 s   - legato slide
 S   - shift slide
  - natural harmonic
[n]  - artificial harmonic
n(n) - tapped harmonic
 ~   - vibrato
 tr  - trill
 T   - tap
 TP  - trem. picking
 PM  - palm muting
\n/  - tremolo bar dip; n = amount to dip
 \n  - tremolo bar down
 n/  - tremolo bar up
/n\  - tremolo bar inverted dip
 =   - hold bend; also acts as connecting device for hammers/pulls
 <>  - volume swell (louder/softer)
 x   - on rhythm slash represents muted slash
 o   - on rhythm slash represents single note slash

Misc Legend
-----------
 |  - bar
||  - double bar
||o - repeat start
o|| - repeat end
*|  - double bar (ending)
 :  - bar (freetime)
 $  - Segno
 &  - Coda
Tempo markers -  = BPM(8/16=s8/s16), where s8 = swing 8ths, s16 = swing 16ths


***************************************************************************************
* Generated using Power Tab Editor by Brad Larsen - http://powertab.guitarnetwork.org *
***************************************************************************************
Comments