Dream Theater - Through My Words Chords & Tabs

 

Through My Words Chords & Tabs

Dream Theater Chords & Tabs

Version: 1 Type: Bass Tab 0 ratings
1 star 2 stars 3 stars 4 stars 5 stars
comments

Through My Words Bass Tab

Band- Dream Theater
Song- Through My Words

Play slowly with long slides as often as possible.


  intro
G |-------|-------|-------|-------|-------|-------|-------|-------|
D |-------|-------|-------|-------|-------|-------|-------|-------|
A 5-------|-----5-0-------|-----0-2-------|-----2-5-----5-4-----4-2
E |-------|-------|-------|-------|-------|-------|-------|-------|

G |-------|-------|-------|-------|-------|-------|-------|-------|
D |-------|-------|-------|-------|-------|-------|-------|-------|
A 2-------|-----2-0-------|-----0-|-------|-------0-------|-----0-5
E |-------|-------|-------|-------4-------|-----4-|-------|-------|

G |-------|-------|-------|-------|-------|-------|-------|-------|
D |-------|-------|-------|-------|-------|-------|-------|-------|
A 5-------|-----5-0-------|-----0-2-------|-----2-5-----5-4-----4-2
E |-------|-------|-------|-------|-------|-------|-------|-------|

G |-------|-------|-------|-------|-------|-------|-------|-------|
D |-------|-------|-------|-------|-------|-------|-------|-------|
A 2-------|-----2-0-------|-----0-|-------|-------0-------|-----0-|
E |-------|-------|-------|-------4-------|-----4-|-------|-------3

G |-------|-------|-------|-------|-------|-------|-------|-------|
D |-------|-------|-------|-------|-------|-------|-------|-------|
A |-------|-------0-------|-----0-5-------|-------|-------|-------|
E 3-------|-----3-|-------|-------|-------|-------|-------|-------|


  prelude
G |-------|-------|-------|-------|-------|-------|-------|-------|
D |-------|-------|-------|-------|-------|--54---|-------|-------|
A |-------|---5---2------22---2---|-------|57-5--3-------532--32|
E 3------33--3----|-------|-------0-------|-------|------3--------3

G |-------|-------|-------|-------|-------|-------|-------|-------|
D |-------|--45---4-------|-------|-------|----5--2-------|-------|
A |-------|-------|-------|----5--7-------|-------|-------|-------|
E 3-------|-------|-------|-------|-------|-------|-------|-------3
  verse 1
G |-------|-------|-------|-------|-------|-------|-------|-------|
D |-------|---5---|-------|-------|-------|-------|-------|-------|
A |-------|-------|-------|-------|-------7---5---3-------|-------|
E 3-------|-------2-------|---2---0------7|-------|-------|-------3

G |-------|-------|-------|-------|-------|-------|-------|-------|
D |-------|-------|-------|-------|-------|-------|-------|-------|
A |-------|-------5-------|----5--7-------|---7---3-------|-------|
E 3-------|---3---|-------|-------|-------|-------|-------|-------0

[ Tab from: http://www.guitartabs.cc/tabs/d/dream_theater/through_my_words_btab.html ]
  interlude                       solo
G |-------|-------|-------|-------|-------|-------|-------|-------|
D |-------|-------|-------|-------|-------|-------|-------|-------|
A |-------|-----575-------|-------|-------|---5---2------22---2---|
E 0-------|----7--|-------|-------3------33--3----|-------|-------0
                                  verse 2
G |-------|-------|-------|-------|-------|-------|-------|-------|
D |-------|-------|-------|-------|-------|---5---4---4---|---4---|
A |-------|---5---3-5-----|75-----|-------|--5----|-5---5-|-5---57|
E 0------00-------|3------|-------3-------|-------|-------2-------0

G |-------|-------|-------|-------|-------|-------|-------|-------|
D |-------|-------|-------|-------|-------|-------|-------|-------|
A |-------797-----3-------|---3---|-------|-------|-------|----5--7
E 0------7|-------|-------|-------3-------|---30--2-------|-------|
                                  interlude
G |-------|-------|-------|-------|-------|-------|-------|-------|
D |-------|-------|-------|-------|-------|-------|-------|-------|
A 7-------|---7---3-------|-------|-------|-797---5-------|---5---|
E |-------|-------|-------|-------0-------|7------|-------|-------5
  chorus
G |-------|-------|-------|-------|-------|-------|-------|-------|
D |-------|-------|-------|-------|-------|-------|-------|-------|
A |-------|-------3-------|---3---|-------|-------5-------|---5---|
E 5-------|---5---|-------|-------3-------|---3---|-------|-------5

G |-------|-------|-------|-------|-------|-------|-------|-------|
D |-------|-------|-------|-------|-------|454----|-------|-------|
A |-------|-------3-------|---3---|-------|---52--5-------|---5---|
E 5-------|---5---|-------|-------0-------|-------|-------|-------3
  verse 3
G |-------|-------|-------|-------|-------|-------|-------|-------|
D |-------5---5---|-------4-------|-------|-------|-------|-------|
A |------5|-------|-------|-------|-------|---7---3-------|---3---|
E 3-------|-------2-------|-------0-------|--7----|-------|-------3

G |-------|-------|-------|-------|-------|-------|-------|-------|
D |-------5-------|-------4-2040--|-------|-------|-------|-------|
A |------5|--020--|-------|-------|-------|---7---3-------|---3---|
E 3-------|-----3-2-------|-------0-------|--7----|-------|-------0
  outro                                           solo
G |-------|-------|-------|-------|-------|-------|-------|-------|
D |-------|-------|-------4-5-4---|-------|-------|-------|-------|
A |-------|-----575-------|-----523---7---|-------|-------|---5---2
E 0-------|----7--|-------|-------|-------5-------3------33--3----|

G |-------|-------|-------|-------|-------|-------|-------|-------|
D |-------|-------|-------|---454-|-------|-------|-------|-------|
A 2------22---2---|-------|------53-------|---2322|-------|-------5
E |-------|-------0-------|-------|-------|-------3-------|----3--|

G |-------|-------|-------|-------|-------|-------|-------|-------|
D |-------|---54--|-------|-------|-------|-------|-------5---5-4-|
A 5-------|-57-57|-------|---7---3-------|---3---|------5|-------2
E |-------|7------|-------|-------|-------|-------3-------|-------|

G |-------|-------|-------|-------|
D |-------|-------|-------|-------|
A 2-------5-------|-------|-------3
E |-----23|----7--0-------|---0---|
Comments