Dream Theater - Through Her Eyes Chords & Tabs

 

Through Her Eyes Chords & Tabs

Dream Theater Chords & Tabs

Version: 1 Type: Bass Tab 0 ratings
1 star 2 stars 3 stars 4 stars 5 stars
comments

Through Her Eyes Bass Tab

                                       M E T R O P O L I S      P A R T   II:
		                              SCENES FROM A MEMORY
                  
                                                Through Her Eyes


Artist: Dream Theater
Songtitle: Through Her Eyes

Basstab by Casper Bours (The Netherlands)
E-mail: casperbours@hotmail.com 
Icq#: 58176336
Visit my website at http://members.tripod.lycos.nl/Casper_Bours/

This song is originally played on a fretless bass but you can also play it on a normal bass. 
This song is very slow, but very cool to play.

  Intro
C|----------------------------------------------------------------------------------|---------------------||
G|------------------------------------------------12-11-----------------------------|-----/12-11~---------||
D|----------10-/12\-----------------------8/10-12-------12~--10~-----------10/12~---|---------------12~---||
A|-------10-------------------------------------------------------------10----------|---------------------||
E|-----------------------7~------7\0~-----------------------------------------------|---------------------||
B|-8~-------------------------------------------------------------------------------|--8------------------||
    
                                          Vocals enter
C|---------------------------------------|------------------------------------------------------------------||
G|---------------------------------------|------------------------------------------------------------------||
D|---12/14------------14\10~-------------|----------5-5-----------------------------------------------------||
A|---------------------------------------|--------------------------------7~--5~--3~--3-3-------------------||
E|--------------12-------------8~--------|--3---3-3------2---2~---0~----0----------------------3~--3-3--2~--||
B|---------------------------------------|-----------------2------------------------------------------------||


C|-------------------------------------------------------------------|---------------------------------------||
G|-------------------------------------------------------------------|--------------------------7~---7/9\7~--||
D|--12^14--------------14\------------------------------12-14-12~----|------------7\----------7--------------||
A|-----------------------------------------------12^14---------------|------2~--------------5----------------||
E|--------12---12-12~-------8~--8-8~---0~--0---------------------10\-|--3~----------0------------------------||
B|-------------------------------------------------------------------|---------------------------------------||
[ Tab from: http://www.guitartabs.cc/tabs/d/dream_theater/through_her_eyes_btab.html ]

C|-----------------------------------------------------------------------------------------------------------||
G|---------------------------------9/11\9~--------------------------------------------------------9/11-9-----||
D|-------5~----------------------9-----------------------------------12^14-------14\10-----------9-----------||
A|-----------------------5^7----------------3~------------5/7\5~------------------------------------------5--||
E|--3~--3-----2~----2--------0---------------------3----5------------------12--------(8)------0--------------||
B|----------------2------------------------------------------------------------------------------------------||


C|-----------------------------------------------------||
G|-----------------------------------------------------||
D|-----------------------------------------------------||
A|-------3~--------5----------3--------/10-9-----------||
E|--5~--------3~----------5-------0----------10-8\-----||
B|------------------(3)-----------------------------3~-||


C|------------------------------------------------------------------------------------------------||
G|------------------------------------------------------------------------------------------------||
D|------5~------------------12/14~\----------5~---7^9-7--------------------------------12/14~\10--||
A|-----5-----------------12-----------------5-----------10~-9~-----7----7-9-----------------------||
E|--3~------2~--2---0----------------8---3---------------------------10-----10\0-----12--------(8)||
B|------------------------------------------------------------------------------------------------||


C|---------------------------------------------------------||
G|---------------------------------------------------------||
D|-------------12^14^12~----12/14\12----------10\-----7\---||
A|-------12^14---------------------------------------------||
E|-0--0------------------------------10---8--------5-------||
B|---------------------------------------------------------||


C|-------------------------------------------------------------------------------------------------||
G|------------11^12^11-------------------------------------------------12^11-----------------------||
D|---------------------12~-10~---------------5----------------8/10-12---------12/14-----14\--------||
A|----2~--------------------------2^3^2-----5------/5^7^5------------------------------------------||
E|-3~-----0-------------------------------3------------------------------------------12------8---3-||
B|-------------------------------------------------------------------------------------------------||

Fade out

Comments