Dream Theater - This Dying Soul Chords & Tabs

 

This Dying Soul Chords & Tabs

Dream Theater Chords & Tabs

Version: 1 Type: Tab 0 ratings
1 star 2 stars 3 stars 4 stars 5 stars
comments

This Dying Soul Tab

   
Band Name- Dream Theater
Song Name- This Dying Soul
It took a long time to do so enjoy this tab.
Its a great song.
Any questions or comments email me at scotty_6677@hotmail.com

Gtr I (B E A D G B E) - 'Gtr.1'
Gtr II (B E A D G B E) - 'Gtr.2'
Gtr III (B E A D G B E) - 'Gtr.3'
Gtr IV (B E A D G B E) - 'Gtr.4'
Gtr V (B E A D G B E) - 'Gtr.5'

 Intro
  Q=143
  N.C.        B5
 3/4         4/4
  Gtrs I, II
    ~    ~
  E Q  E Q    W          +W           +W             W
|-----------|----------|------------|------------|----------|
|-----------|----------|------------|------------|----------|
|-----------|----------|------------|------------|----------|
|-----------|----------|------------|------------|----------|
|-----------|----------|------------|------------|--[2]-----|
|-4----4----|-2--------|-(2)--------|-(2)--------|--(2)-----|
|---3----2--|-0--------|-(0)--------|-(0)--------|-([0])----|
                                                    +W


                \0.5/  \0.5/  \0.5/  \0.5/  \0.5/  \0.5/  \0.5/  \0.5/
  +W           +E     +E     +E     +E     +E     +E     +E     +E
|------------|---------------------------------------------------------|
|------------|---------------------------------------------------------|
|------------|---------------------------------------------------------|
|------------|---------------------------------------------------------|
|-(2)--------|-(2)----(2)----(2)----(2)----(2)----(2)----(2)----(2)----|
|------------|---------------------------------------------------------|
|------------|---------------------------------------------------------|


   \0.5/  \0.5/  \0.5/  \0.5/  \0.5/
  +E     +E     +E     +E     +H          W
|---------------------------------------|-------|
|---------------------------------------|-------|
|---------------------------------------|-------|
|---------------------------------------|-------|
|-(2)----(2)----(2)----(2)----(2)-------|-x\----|
|---------------------------------------|-x\----|
|---------------------------------------|-x\----|


    PM------------------|      PM------------------|
    S S S S E S S +S  S E Q    S S S S E S S +S  S E Q
||---------------------------|--------------------------|
||---------------------------|--------------------------|
||o--------------------------|--------------------------|
||---------------------------|--------------------------|
||o--------------------------|--------------------------|
||---------------------------|--------------------------|
||--0-0-0-0-0-0-0-(0)-0-0----|-0-0-0-0-0-0-0-(0)-0-0----|


                                                   N.C.
  PM------------------|      PM------------------|
  S S S S E S S +S  S E Q    S S S S E S S +S  S E Q
|--------------------------|---------------------------||
|--------------------------|---------------------------||
|--------------------------|-----------------------5--o||
|--------------------------|-----------------------4---||
|--------------------------|--------------------------o||
|--------------------------|---------------------------||
|-0-0-0-0-0-0-0-(0)-0-0----|-0-0-0-0-0-0-0-(0)-0-0-----||


    B5
    PM------------------|
    S S S S E S S +S  S E Q
||---------------------------|
||---------------------------|
||o--------------------------|
||---------------------------|
||o--------------------------|
||---------------------------|
||--0-0-0-0-0-0-0-(0)-0-0----|


                        N.C. B5
  PM------------------|      PM------------------|
  S S S S E S S +S  S E Q    S S S S E S S +S  S E Q
|--------------------------|----------------------------|
|--------------------------|----------------------------|
|-----------------------5--|----------------------------|
|-----------------------4--|----------------------------|
|--------------------------|----------------------------|
|--------------------------|----------------------------|
|-0-0-0-0-0-0-0-(0)-0-0----|-0-0-0-0-0-0-0-(0)-0-0------|


  1.                            2.
 7/8                           5/4
  PM----------------------------------------------------|
                                              |-3-| |-3-|
  S S S S E S S S S S S S S     S S S S E S S q q q E E E
|----------------------------||---------------------------||
|----------------------------||---------------------------||
|---------------------------o||---------------------------||
|----------------------------||---------------------------||
|---------------------------o||---------------------------||
|----------------------------||---------------3-4-5-------||
|-0-0-0-0-0-0-0-3-2-0-3-2-0--||-0-0-0-0-0-0-0-1-2-3-1-0-0-||


 Guitar Solo
  B5     C#5       D5C#5
 4/4
  Gtr III
   ~~~~~~                                 ~~~
                           |-----3-----|
   W                      +Q     +Q    Q +H
|----------------------|------------------------|
|-12b14================|=(12)r==(12)---9-(9)----|
|--x-------------------|------------------------|
|----------------------|------------------------|
|----------------------|------------------------|
|----------------------|------------------------|
|----------------------|------------------------|
|
| Gtrs I, II
|                PM
|  E     E E E E E E E     E  E      Q    H
|----------------------|------------------------|
|----------------------|------------------------|
|----------------------|------------------------|
|----------------------|------------------------|
|----------------------|------------------------|
|--2-----4---4---4-5-4-|------4-----------------|
|--0-----2---2---2-3-2-|------2-----------------|


  B5C#5                   D5     C#5
                                       ~~~
                 |------3------|
  E  E  E  E  A  Q    A Q    A Q       W
|----------------------------------|---------------|
|---\9-10-12-12s10---12s9---12s7---|-/18-----------|
|----------------------------------|---------------|
|----------------------------------|---------------|
|----------------------------------|---------------|
|----------------------------------|---------------|
|----------------------------------|---------------|
|
|                  PM
| E  E  E  E     E E      E      E     E E Q  H
|----------------------------------|---------------|
|----------------------------------|---------------|
|----------------------------------|---------------|
|----------------------------------|---------------|
|----------------------------------|---------------|
|-2--4-----4-------4------5------4-|-----4---------|
|-0--2-----2-------2------3------2-|-----2---------|


  B5      C#5                                          D5       C#5
              T                 T     T                 T
  |------6-------|  |------6-------|  |------6-------|  |------6-------|
  S  S  S  S  S  S  S  S  S  S  S  S  S  S  S  S  S  S  S  S  S  S  S  S
|---16h17h19h21p19p17p16h17h19h22p19h22p19p17p16h17h19h21p19p17p16h17h19h|
|------------------------------------------------------------------------|
|------------------------------------------------------------------------|
|------------------------------------------------------------------------|
|------------------------------------------------------------------------|
|------------------------------------------------------------------------|
|------------------------------------------------------------------------|
|
|                                              PM
| E        E        E        E        E        E        E        E
|------------------------------------------------------------------------|
|------------------------------------------------------------------------|
|------------------------------------------------------------------------|
|------------------------------------------------------------------------|
|------------------------------------------------------------------------|
|-2--------4-----------------4-----------------4--------5--------4-------|
|-0--------2-----------------2-----------------2--------3--------2-------|


   T     T                           T                   T     T
   |--3--|  |-------5-------|  |------5------|  |--3--|  |------6-------|
   S  S  S  S  S  S    +S   S  S  S  S    S  S  S  S  S  S  S  S  S  S  S
|-22p19h22p19p17p16---(16)-13h14h16h17p==16p14p13h14h16h17p16h17p16p14p13-|
|-------------------------------------------------------------------------|
|-------------------------------------------------------------------------|
|-------------------------------------------------------------------------|
|-------------------------------------------------------------------------|
|-------------------------------------------------------------------------|
|-------------------------------------------------------------------------|
|
|  E        E       Q                  H
|-------------------------------------------------------------------------|
|-------------------------------------------------------------------------|
|-------------------------------------------------------------------------|
|-------------------------------------------------------------------------|
|-------------------------------------------------------------------------|
|-----------4-------------------------------------------------------------|
|-----------2-------------------------------------------------------------|


  B5       C#5                                     D5       C#5
      T                 T     T                           T     T
   |------6-------|  |------6-------|  |----6----|  |------6------|
   S  S  S  S  S  S  S  S  S  S  S  S  S E S  S  S  S  S  S  S  S S
|-16h17p16p14p13h14h16h17p16h17p16p14p13-x-9h10h13h16p13h16p13p10p9h|
|-------------------------------------------------------------------|
|-------------------------------------------------------------------|
|-------------------------------------------------------------------|
|-------------------------------------------------------------------|
|-------------------------------------------------------------------|
|-------------------------------------------------------------------|
|
|                                          PM
|  E        E        E        E        E   E        E        E
|-------------------------------------------------------------------|
|-------------------------------------------------------------------|
|-------------------------------------------------------------------|
|-------------------------------------------------------------------|
|-------------------------------------------------------------------|
|--2--------4-----------------4------------4--------5--------4------|
|--0--------2-----------------2------------2--------3--------2------|


                                      T                T     T
   |------6-------|  |------6------|  |------6------|  |------6------|
   S  S  S  S  S  S  S S  S  S  S  S  S  S  S S  S  S  S  S  S  S  S S
|-10h13h17p13h17p13p10p9h10h13h19p13h19p13p10p9h10h13h21p13h21p13p10p9--||
|-----------------------------------------------------------------------||
|-----------------------------------------------------------------------||
|-----------------------------------------------------------------------||
|-----------------------------------------------------------------------||
|-----------------------------------------------------------------------||
|-----------------------------------------------------------------------||
|
|  E        E        Q                H
|-----------------------------------------------------------------------||
|-----------------------------------------------------------------------||
|-----------------------------------------------------------------------||
|-----------------------------------------------------------------------||
|-----------------------------------------------------------------------||
|-----------4-----------------------------------------------------------||
|-----------2-----------------------------------------------------------||


 Guitar Break
  N.C.(B5)
 3/4
  Gtr I
               ~~~~~~~~~            ~~
      |--3--|                                |--3--|
   E  S  S  S  E  E  E   E    E  E  Q    E   S  S  S
|--------------------------|-------------------------|
|-12h13p12----12-12-12-----|-12-13-12---12h=13p12----|
|----------14-----------14-|----------------------14-|
|--------------------------|-------------------------|
|--------------------------|-------------------------|
|--------------------------|-------------------------|
|--------------------------|-------------------------|
|
| Gtr II
|              ~~~~~~~~~            ~~
|     |--3--|                                |--3--|
|  E  S  S  S  E  E  E   E    E  E  Q    E   S  S  S
|--------------------------|-------------------------|
|--------------------------|-------------------------|
|--4h=5p=4-----4--4--4-----|--4--5--4----4h==5p=4----|
|-----------7------------7-|-----------------------7-|
|--------------------------|-------------------------|
|--------------------------|-------------------------|
|--------------------------|-------------------------|
|
| Gtr III
|  E  E        E  E +E   E    E  E  E E +E   E
|--------------------------|-------------------------|
|--------------------------|-------------------------|
|-----------------4-(4)--4-|--5--4----4-(4)--4-------|
|--------------------------|-------------------------|
|--0h=2--------2-----------|--------2----------------|
|--------------------------|-------------------------|
|--------------------------|-------------------------|


         ~~                  ~~~
   E  E  Q    E   E    E  E  Q.      +E
|-------------------|----------------------|
|-12s19-19---19--17-|-19-20-19------(19)\--|
|-------------------|----------------------|
|-------------------|----------------------|
|-------------------|----------------------|
|-------------------|----------------------|
|-------------------|----------------------|
|
|        ~~                  ~~~
|  E  E  Q    E   E    E  E  Q.      +E
|-------------------|----------------------|
|-------------------|----------------------|
|--4s11-11---11---9-|-11-12-11------(11)\--|
|-------------------|----------------------|
|-------------------|----------------------|
|-------------------|----------------------|
|-------------------|----------------------|
|
|  E  E  E E +E   E    E  E  E  E Q
|-------------------|----------------------|
|-------------------|----------------------|
|----------4-(4)--4-|--5--4----------------|
|-------------------|-----------5-4--------|
|--0h=2--2----------|--------2-------------|
|-------------------|----------------------|
|-------------------|----------------------|


  B5/E
               ~~~~~~~~~            ~~
      |--3--|
   E  S  S  S  E  E  E   E    E  E  Q     E   E
|--------------------------|--------------------|
|-12h13p12----12-12-12-----|-12-13-12---/19--20-|
|----------14-----------14-|--------------------|
|--------------------------|--------------------|
|--------------------------|--------------------|
|--------------------------|--------------------|
|--------------------------|--------------------|
|
|              ~~~~~~~~~            ~~
|     |--3--|
|  E  S  S  S  E  E  E   E    E  E  Q     E   E
|--------------------------|--------------------|
|--------------------------|------------/15--17-|
|--4h=5p=4-----4--4--4-----|--4--5--4-----------|
|-----------7------------7-|--------------------|
|--------------------------|--------------------|
|--------------------------|--------------------|
|--------------------------|--------------------|
|
|  Q           E  E +E   E    E  E  E E  +E   E
|--------------------------|--------------------|
|--------------------------|--------------------|
|-----------------4-(4)--4-|--5--4----4--(4)--4-|
|--------------------------|--------------------|
|--------------------------|--------------------|
|--0-----------0-----------|--------0-----------|
|--------------------------|--------------------|


  G                      B5/A
   ~~                     ~~~~~~~~~~~~
               |--3--|
   H       E   S  S  S    H       +E   +E
|----------------------|--------------------|
|-22------20--19h20p19-|--------------------|
|----------------------|-21------(21)-(21)\-|
|----------------------|--------------------|
|----------------------|--------------------|
|----------------------|--------------------|
|----------------------|--------------------|
|
|  ~~                     ~~~~~~~~~~~~
|              |--3--|
|  H       E   S  S  S    H       +E   +E
|----------------------|--------------------|
|-19------17--15h17p15-|--------------------|
|----------------------|--------------------|
|----------------------|-19------(19)-(19)\-|
|----------------------|--------------------|
|----------------------|--------------------|
|----------------------|--------------------|
|
|  Q  E E +E   E          Q  E E  +E    E
|----------------------|--------------------|
|----------------------|--------------------|
|-------4-(4)--4-------|-------4--(4)---4---|
|----------------------|--------------------|
|----------------------|--0--0--------------|
|--3--3----------------|--------------------|
|----------------------|--------------------|


  N.C.(B5)
               ~~~~~~~~~
      |--3--|
   E  S  S  S  E  E  E  E    S S  S S  S S  S S  S  S  S S
|-------------------------|--------------------------------|
|-12h13p12----12-12-12--0-|-12-0-13-0-12-0-10-0-12--0-13-0-|
|----------14-------------|--------------------------------|
|-------------------------|--------------------------------|
|-------------------------|--------------------------------|
|-------------------------|--------------------------------|
|-------------------------|--------------------------------|
|
|              ~~~~~~~~~
|     |--3--|
|  E  S  S  S  E  E  E  E    S S  S S  S S  S S  S  S  S S
|-------------------------|--------------------------------|
|-----------------------0-|--7-0--8-0--7-0--5-0--7--0--8-0-|
|--4h=5p=4-----4--4--4----|--------------------------------|
|-----------7-------------|--------------------------------|
|-------------------------|--------------------------------|
|-------------------------|--------------------------------|
|-------------------------|--------------------------------|
|
|  E  E        E  E +E  E    E    E    E    E   +E     E
|-------------------------|--------------------------------|
|-------------------------|--------------------------------|
|-----------------4-(4)-4-|--5----4---------4---(4)----4---|
|-------------------------|--------------------------------|
|--0h=2--------2----------|------------2-------------------|
|-------------------------|--------------------------------|
|-------------------------|--------------------------------|


               ~~~                        ~~
      |--3--|                    |--3--|
   E  S  S  S  E  E  E   E    E  S  S  S  Q   S  S  S  S
|--------------------------|--------------------------20-|
|-12h13p12----12s19-19-----|-19h20p19----19--19-20-22----|
|----------14-----------21-|----------21-----------------|
|--------------------------|-----------------------------|
|--------------------------|-----------------------------|
|--------------------------|-----------------------------|
|--------------------------|-----------------------------|
|
|              ~~~                        ~~
|     |--3--|                    |--3--|
|  E  S  S  S  E  E  E   E    E  S  S  S  Q   S  S  S  S
|--------------------------|--------------------------14-|
|--7h=8p=7-----7s12-12-----|-12h13p12----12--12-13-15----|
|-----------9-----------14-|----------14-----------------|
|--------------------------|-----------------------------|
|--------------------------|-----------------------------|
|--------------------------|-----------------------------|
|--------------------------|-----------------------------|
|
|  E  E        E  E +E   E    Q           Q   Q
|--------------------------|-----------------------------|
|--------------------------|-----------------------------|
|-----------------4-(4)--4-|-----------------------------|
|--------------------------|--5-----------5---5----------|
|--0h=2--------2-----------|-----------------------------|
|--------------------------|-----------------------------|
|--------------------------|-----------------------------|


  B5/F#
   |--3--|                                   |--3--|
   S  S  S  S  S  S  S  S  S  S   S  S  S    S  S  S  S  S  S  S  S  S  S   S  S  S
|-19h20p19----19-----------------19-20-22-|-----------------------------------------|
|----------22----22-20-19-20-22-----------|-19h20p19----19-----------------19-20-22-|
|-----------------------------------------|----------21----21-19-17-19-21-----------|
|-----------------------------------------|-----------------------------------------|
|-----------------------------------------|-----------------------------------------|
|-----------------------------------------|-----------------------------------------|
|-----------------------------------------|-----------------------------------------|
|
|  |--3--|                                   |--3--|
|  S  S  S  S  S  S  S  S  S  S   S  S  S    S  S  S  S  S  S  S  S  S  S   S  S  S
|-12h14p12----12-----------------12-14-15-|-----------------------------------------|
|----------15----15-13-12-13-15-----------|-12h13p12----12-----------------12-13-15-|
|-----------------------------------------|----------14----14-12-11-12-14-----------|
|-----------------------------------------|-----------------------------------------|
|-----------------------------------------|-----------------------------------------|
|-----------------------------------------|-----------------------------------------|
|-----------------------------------------|-----------------------------------------|
|
|  Q              E     E    +E      E       E        E     E     E    +E      E
|-----------------------------------------|-----------------------------------------|
|-----------------------------------------|-----------------------------------------|
|-----------------------4----(4)-----4----|--5--------4-----------4----(4)-----4----|
|-----------------------------------------|-----------------------------------------|
|-----------------------------------------|-----------------------------------------|
|--2--------------2-----------------------|-----------------2-----------------------|
|-----------------------------------------|-----------------------------------------|


  E5                                        N.C.
   |--3--|
   S  S  S  S  S  S  S  S  S  S   S  S  S    S  S  S  S  S  S  S  S  S  S  S  S
|-----------------------------------------|----------17-19-20----19-20-19-20-22-||
|-----------------------------------------|-17-19-20----------22----------------||
|-16h17p16----16-----------------16-17-19-|-------------------------------------||
|----------19----19-17-16-17-19-----------|-------------------------------------||
|-----------------------------------------|-------------------------------------||
|-----------------------------------------|-------------------------------------||
|-----------------------------------------|-------------------------------------||
|
|  |--3--|
|  S  S  S  S  S  S  S  S  S  S   S  S  S    S  S  S  S  S  S  S  S  S  S  S  S
|-----------------------------------------|----------------------------------17-||
|-----------------------------------------|----------17-19-20-17-19-20-19-20----||
|-----------------------------------------|-16-17-19----------------------------||
|-16h17p16----16-----------------16-17-19-|-------------------------------------||
|----------19----19-17-15-17-19-----------|-------------------------------------||
|-----------------------------------------|-------------------------------------||
|-----------------------------------------|-------------------------------------||
|
|  Q              E     E    +E      E       Q           Q           Q
|-----------------------------------------|-------------------------------------||
|-----------------------------------------|-------------------------------------||
|-----------------------4----(4)-----4----|-------------------------------------||
|-----------------------------------------|-------------------------------------||
|-----------------------------------------|-------------------------------------||
|--0--------------0-----------------------|-------------------------------------||
|-----------------------------------------|--3-----------1-----------0----------||


 Keyboard solo
  E5                         C#5
 5/4
  Gtr I
   ~~~~~~~~~~~~
   H       +E   +E   H       W
|-24------(24)-(24)\-------|-----------------|
|--------------------------|-----------------|
|--------------------------|-----------------|
|--------------------------|-----------------|
|--------------------------|-----------------|
|--------------------------|-----------------|
|--------------------------|-----------------|
|
| Gtr II
|  ~~~~~~~~~~~~
|  H       +E   +E   H       W
|-19------(19)-(19)\-------|-----------------|
|--------------------------|-----------------|
|--------------------------|-----------------|
|--------------------------|-----------------|
|--------------------------|-----------------|
|--------------------------|-----------------|
|--------------------------|-----------------|
|
| Gtr III
|                PM
|  Q.   Q        E   Q  Q    Q.   Q.   Q  Q
|--------------------0--0--|-----------------|
|--------------------0--0--|-----------------|
|--------------------4--4--|-----------------|
|--2----2------------2--2--|-----------------|
|--2----2--------2---------|-----------------|
|--0----0--------0---------|-----------------|
|--------------------------|-2----2----2--2--|


  C5                F#5
  W                 W
|-----------------|-------------------|
|-----------------|-------------------|
|-----------------|-------------------|
|-----------------|-------------------|
|-----------------|-------------------|
|-----------------|-------------------|
|-----------------|-------------------|
|
| W                 W
|-----------------|-------------------|
|-----------------|-------------------|
|-----------------|-------------------|
|-----------------|-------------------|
|-----------------|-------------------|
|-----------------|-------------------|
|-----------------|-------------------|
|
| Q.   Q  E Q  Q    Q.   Q  E Q  Q
|-----------------|-------------------|
|-----------------|-------------------|
|-----------------|-------------------|
|-----------------|-------------------|
|-3----3--3-3--3--|-------------------|
|-3----3--3-3--3--|-2----2--0-2--3----|
|-1----1--1-1--1--|-------------------|


  E5                C5/C#             C5                A5           G5F#F5
                                                       6/4
  Gtr III
          PM                PM                                       PM--|
                                                                     |-3-|
  Q.   Q  E Q  Q    Q.   Q  E Q  Q    Q.   Q  E Q  Q    Q.   Q.   Q  Q Q Q
|-----------0--0--|-----------------|-----------------|---------------------|
|-----------0--0--|-----------------|-----------------|---------------------|
|-----------4--4--|-----------------|-----------------|-2----2----2---------|
|-2----2----2--2--|-5----5----5--5--|-----------------|-2----2----2---------|
|-2----2--2-------|-4----4--4-4--4--|-3----3--3-3--3--|-0----0----0--5-4-3--|
|-0----0--0-------|-----------------|-3----3--3-3--3--|--------------3-2-1--|
|-----------------|-----------------|-1----1--1-1--1--|---------------------|


  E5                C#5               C5                F#5
 5/4
          PM
  Q.   Q  E Q  Q    Q.   Q.   Q  Q    Q.   Q  E Q  Q    Q.   Q  E Q  Q
|-----------0--0--|-----------------|-----------------|-------------------|
|-----------0--0--|-----------------|-----------------|-------------------|
|-----------4--4--|-----------------|-----------------|-------------------|
|-2----2----2--2--|-----------------|-----------------|-------------------|
|-2----2--2-------|-----------------|-3----3--3-3--3--|-------------------|
|-0----0--0-------|-----------------|-3----3--3-3--3--|-2----2--0-2--3----|
|-----------------|-2----2----2--2--|-1----1--1-1--1--|-------------------|


  E5                C5/C#             C5                A5
                                                       6/4
          PM                PM                                  PM
  Q.   Q  E Q  Q    Q.   Q  E Q  Q    Q.   Q  E Q  Q    Q.   Q  E Q  Q  Q
|-----------0--0--|-----------------|-----------------|--------------------||
|-----------0--0--|-----------------|-----------------|--------------------||
|-----------4--4--|-----------------|-----------0-----|-2----2----2--2--2--||
|-2----2----2--2--|-5----5----5--5--|-----------x-----|-2----2--2-2--2--2--||
|-2----2--2-------|-4----4--4-4--4--|-3----3--3-3--3--|-0----0--0-0--0--0--||
|-0----0--0-------|-----------------|-3----3--3-3--3--|--------------------||
|-----------------|-----------------|-1----1--1-1--1--|--------------------||


   Pre-Verse
    N.C.(B5)
   3/4
    Gtrs I, II
        PM~~~~~~       PM~~~~~~       PM~~~~~~       PM    ~
    E E E E +Q     E E E E +Q     E E E E +Q     E E E   E Q
||---------------|--------------|--------------|---------------|
||---------------|--------------|--------------|---------------|
||o--------------|--------------|--------------|---------------|
||---------------|--------------|--------------|---------------|
||o--------------|--------------|--------------|-------/10-9---|
||--5h7---7-(7)--|-8-7---7-(7)--|-5h7---7-(7)--|-8-7-----------|
||------0--------|-----0--------|-----0--------|-----0---------|


      PM~~~~~~       PM~~~~~~       PM~~~~~~       PM   ~
  E E E E +Q     E E E E +Q     E E E E +Q     E E E  E Q
|--------------|--------------|--------------|--------------||
|--------------|--------------|--------------|--------------||
|--------------|--------------|--------------|-------------o||
|--------------|--------------|--------------|--------------||
|--------------|--------------|--------------|-------------o||
|-5h7---7-(7)--|-8-7---7-(7)--|-5h7---7-(7)--|-8-7----------||
|-----0--------|-----0--------|-----0--------|-----0-/8-7---||


    N.C.(B5)
    Gtr IV
    E E E E +E  E   E E E E Q    E E E E +E  E   E E E E Q
||----------------|------------|---------------|-------------||
||----------------|------------|---------------|-------------||
||o-------4-(4)---|-5-4---4----|-------4-(4)---|-5-4--------o||
||----------------|------------|---------------|-------5-4---||
||o-0h2-2-------2-|-----2---2--|-0h2-2-------2-|-----2------o||
||----------------|------------|---------------|-------------||
||----------------|------------|---------------|-------------||
|
|   Gtr V
|   E E E E +E  E   E E E E Q    E E E E +E  E   E E E E Q
||--------7-(7)---|-8-7---7----|-------7-(7)---|-8-7---------||
||----------------|------------|---------------|-------8-7---||
||o-------4-(4)---|-5-4---4----|-------4-(4)---|-5-4--------o||
||----------------|------------|---------------|-------5-4---||
||o-0h2-2-------2-|-----2---2--|-0h2-2-------2-|-----2------o||
||----------------|------------|---------------|-------------||
||----------------|------------|---------------|-------------||


   Verse
    N.C.(B5)
    E E E E +E  E   E E E E Q    E E E E +E  E   E E E E Q   4x
||----------------|------------|---------------|-------------||
||----------------|------------|---------------|-------------||
||o-------4-(4)---|-5-4---4----|-------4-(4)---|-5-4--------o||
||----------------|------------|---------------|-------5-4---||
||o-0h2-2-------2-|-----2---2--|-0h2-2-------2-|-----2------o||
||----------------|------------|---------------|-------------||
||----------------|------------|---------------|-------------||
|
|   E E E E +E  E   E E E E Q    E E E E +E  E   E E E E Q   4x
||--------7-(7)---|-8-7---7----|-------7-(7)---|-8-7---------||
||----------------|------------|---------------|-------8-7---||
||o-------4-(4)---|-5-4---4----|-------4-(4)---|-5-4--------o||
||----------------|------------|---------------|-------5-4---||
||o-0h2-2-------2-|-----2---2--|-0h2-2-------2-|-----2------o||
||----------------|------------|---------------|-------------||
||----------------|------------|---------------|-------------||


  B5
  Gtr I
   E  E E E Q     H.         H.                     H.
|--------------|----------|----------------------|------------------|
|--------------|----------|----------------------|------------------|
|--------------|----------|----------------------|------------------|
|--4--4---4----|----------|----------------------|------------------|
|--2--2---2----|----------|----------------------|------------------|
|--2--2---2----|----------|----------------------|------------------|
|--0--0---0----|----------|----------------------|------------------|
|
| Gtr II
|                            \2.5/  \2.5/           \2.5/
|  H.            +H.        +E     +E     +H       +Q       +H
|--------------|----------|----------------------|------------------|
|--------------|----------|----------------------|------------------|
|--------------|----------|----------------------|------------------|
|--------------|----------|----------------------|------------------|
|-[2]----------|-(2)------|-(2)----(2)----(2)----|-(2)-----([2])----|
|--------------|----------|----------------------|------------------|
|--------------|----------|----------------------|------------------|


                                            C5  B5  G5F#5
                                        PM        PM
   E  E E E Q     H.         E  E E E E E    E  E E E Q
|--------------|----------|---------------|--------------|
|--------------|----------|---------------|--------------|
|--------------|----------|---------------|--------------|
|--4--4---4----|----------|--4--4---4-----|--------------|
|--2--2---2----|----------|--2--2---2-----|---------5-4--|
|--2--2---2----|----------|--2--2---2-----|--3--2---3-2--|
|--0--0---0----|----------|--0--0---0---0-|--1--0-0------|
|
| +H.            +H.        +H.             +H.
|--------------|----------|---------------|--------------|
|--------------|----------|---------------|--------------|
|--------------|----------|---------------|--------------|
|--------------|----------|---------------|--------------|
|-(2)----------|-(2)------|-(2)-----------|-(2)----------|
|--------------|----------|---------------|--------------|
|--------------|----------|---------------|--------------|


    N.C.(B5)
    Gtrs I, II
        PM~~~~~~       PM~~~~~~       PM~~~~~~       PM    ~
    E E E E +Q     E E E E +Q     E E E E +Q     E E E   E Q
||---------------|--------------|--------------|--------------|
||---------------|--------------|--------------|--------------|
||o--------------|--------------|--------------|--------------|
||---------------|--------------|--------------|--------------|
||o--------------|--------------|--------------|-------/10-9--|
||--5h7---7-(7)--|-8-7---7-(7)--|-5h7---7-(7)--|-8-7----------|
||------0--------|-----0--------|-----0--------|-----0--------|


      PM~~~~~~       PM~~~~~~       PM~~~~~~       PM   ~
  E E E E +Q     E E E E +Q     E E E E +Q     E E E  E Q
|--------------|--------------|--------------|--------------||
|--------------|--------------|--------------|--------------||
|--------------|--------------|--------------|-------------o||
|--------------|--------------|--------------|--------------||
|--------------|--------------|--------------|-------------o||
|-5h7---7-(7)--|-8-7---7-(7)--|-5h7---7-(7)--|-8-7----------||
|-----0--------|-----0--------|-----0--------|-----0-/8-7---||


 Pre-Chorus
  N.C.(B5)
  E E E E +E  E   E E E E +E  E   E E E E +E  E   E E E E Q
|---------------|---------------|---------------|------------|
|---------------|---------------|---------------|------------|
|-------4-(4)-4-|-5-4---4-(4)-4-|-------4-(4)-4-|-5-4--------|
|---------------|---------------|---------------|-------5-4--|
|-0h2-2---------|-----2---------|-0h2-2---------|-----2------|
|---------------|---------------|---------------|------------|
|---------------|---------------|---------------|------------|


  B5/E                           G              G
  Q  E E +E  E   E E E E +E  E   Q  E E +E  E   Q  E E +E  E
|--------------|---------------|--------------|--------------|
|--------------|---------------|--------------|--------------|
|------4-(4)-4-|-5-4---4-(4)-4-|------4-(4)-4-|------4-(4)-4-|
|--------------|---------------|--------------|--------------|
|--------------|---------------|--------------|-0--0---------|
|-0--0---------|-----0---------|-3--3---------|--------------|
|--------------|---------------|--------------|--------------|


  N.C.(B5)                                        G
  E E E E +E  E   E E E E +E  E   E E E E +E  E   Q  E E +E  E
|---------------|---------------|---------------|--------------|
|---------------|---------------|---------------|--------------|
|-------4-(4)-4-|-5-4---4-(4)-4-|-------4-(4)-4-|------4-(4)-4-|
|---------------|---------------|---------------|--------------|
|-0h2-2---------|-----2---------|-0h2-2---------|--------------|
|---------------|---------------|---------------|-3--3---------|
|---------------|---------------|---------------|--------------|


  B5/F#                           E5             B5/D
  E E E E +E  E   E E E E +E  E   Q  E E +E  E   Q  E E +E  E
|---------------|---------------|--------------|--------------||
|---------------|---------------|--------------|--------------||
|-------4-(4)-4-|-5-4---4-(4)-4-|------4-(4)-4-|------4-(4)-4-||
|---------------|---------------|--------------|--------------||
|---------------|---------------|--------------|--------------||
|-0h2-2---------|-----2---------|-0--0---------|--------------||
|---------------|---------------|--------------|-3--3---------||


 Chorus
  N.C.(B5)
  Gtr I
               ~~~~~~~~~            ~~
      |--3--|                                |--3--|
   E  S  S  S  E  E  E   E    E  E  Q    E   S  S  S
|--------------------------|-------------------------|
|-12h13p12----12-12-12-----|-12-13-12---12h=13p12----|
|----------14-----------14-|----------------------14-|
|--------------------------|-------------------------|
|--------------------------|-------------------------|
|--------------------------|-------------------------|
|--------------------------|-------------------------|
|
| Gtr II
|              ~~~~~~~~~            ~~
|     |--3--|                                |--3--|
|  E  S  S  S  E  E  E   E    E  E  Q    E   S  S  S
|--------------------------|-------------------------|
|--------------------------|-------------------------|
|--4h=5p=4-----4--4--4-----|--4--5--4----4h==5p=4----|
|-----------7------------7-|-----------------------7-|
|--------------------------|-------------------------|
|--------------------------|-------------------------|
|--------------------------|-------------------------|
|
| Gtr III
|  E  E        E  E +E   E    E  E  E E +E   E
|--------------------------|-------------------------|
|--------------------------|-------------------------|
|-----------------4-(4)--4-|--5--4----4-(4)--4-------|
|--------------------------|-------------------------|
|--0h=2--------2-----------|--------2----------------|
|--------------------------|-------------------------|
|--------------------------|-------------------------|


         ~~                  ~~~
   E  E  Q    E   E    E  E  Q.      +E
|-------------------|---------------------|
|-12s19-19---19--17-|-19-20-19------(19)\-|
|-------------------|---------------------|
|-------------------|---------------------|
|-------------------|---------------------|
|-------------------|---------------------|
|-------------------|---------------------|
|
|        ~~                  ~~~
|  E  E  Q    E   E    E  E  Q.      +E
|-------------------|---------------------|
|-------------------|---------------------|
|--4s11-11---11---9-|-11-12-11------(11)\-|
|-------------------|---------------------|
|-------------------|---------------------|
|-------------------|---------------------|
|-------------------|---------------------|
|
|  E  E  E E +E   E    E  E  E  E Q
|-------------------|---------------------|
|-------------------|---------------------|
|----------4-(4)--4-|--5--4---------------|
|-------------------|-----------5-4-------|
|--0h=2--2----------|--------2------------|
|-------------------|---------------------|
|-------------------|---------------------|


  B5/E
               ~~~~~~~~~            ~~
      |--3--|
   E  S  S  S  E  E  E   E    E  E  Q     E   E
|--------------------------|--------------------|
|-12h13p12----12-12-12-----|-12-13-12---/19--20-|
|----------14-----------14-|--------------------|
|--------------------------|--------------------|
|--------------------------|--------------------|
|--------------------------|--------------------|
|--------------------------|--------------------|
|
|              ~~~~~~~~~            ~~
|     |--3--|
|  E  S  S  S  E  E  E   E    E  E  Q     E   E
|--------------------------|--------------------|
|--------------------------|------------/15--17-|
|--4h=5p=4-----4--4--4-----|--4--5--4-----------|
|-----------7------------7-|--------------------|
|--------------------------|--------------------|
|--------------------------|--------------------|
|--------------------------|--------------------|
|
|  Q           E  E +E   E    E  E  E E  +E   E
|--------------------------|--------------------|
|--------------------------|--------------------|
|-----------------4-(4)--4-|--5--4----4--(4)--4-|
|--------------------------|--------------------|
|--------------------------|--------------------|
|--0-----------0-----------|--------0-----------|
|--------------------------|--------------------|


  G                      B5/A
   ~~                     ~~~~~~~~~~~~
               |--3--|
   H       E   S  S  S    H       +E   +E
|----------------------|--------------------|
|-22------20--19h20p19-|--------------------|
|----------------------|-21------(21)-(21)\-|
|----------------------|--------------------|
|----------------------|--------------------|
|----------------------|--------------------|
|----------------------|--------------------|
|
|  ~~                     ~~~~~~~~~~~~
|              |--3--|
|  H       E   S  S  S    H       +E   +E
|----------------------|--------------------|
|-19------17--15h17p15-|--------------------|
|----------------------|--------------------|
|----------------------|-19------(19)-(19)\-|
|----------------------|--------------------|
|----------------------|--------------------|
|----------------------|--------------------|
|
|  Q  E E +E   E          Q  E E  +E    E
|----------------------|--------------------|
|----------------------|--------------------|
|-------4-(4)--4-------|-------4--(4)---4---|
|----------------------|--------------------|
|----------------------|--0--0--------------|
|--3--3----------------|--------------------|
|----------------------|--------------------|


  N.C.(B5)
               ~~~~~~~~~
      |--3--|
   E  S  S  S  E  E  E  E    S S  S S  S S  S S  S  S  S S
|-------------------------|--------------------------------|
|-12h13p12----12-12-12--0-|-12-0-13-0-12-0-10-0-12--0-13-0-|
|----------14-------------|--------------------------------|
|-------------------------|--------------------------------|
|-------------------------|--------------------------------|
|-------------------------|--------------------------------|
|-------------------------|--------------------------------|
|
|              ~~~~~~~~~
|     |--3--|
|  E  S  S  S  E  E  E  E    S S  S S  S S  S S  S  S  S S
|-------------------------|--------------------------------|
|-----------------------0-|--7-0--8-0--7-0--5-0--7--0--8-0-|
|--4h=5p=4-----4--4--4----|--------------------------------|
|-----------7-------------|--------------------------------|
|-------------------------|--------------------------------|
|-------------------------|--------------------------------|
|-------------------------|--------------------------------|
|
|  E  E        E  E +E  E    E    E    E    E   +E     E
|-------------------------|--------------------------------|
|-------------------------|--------------------------------|
|-----------------4-(4)-4-|--5----4---------4---(4)----4---|
|-------------------------|--------------------------------|
|--0h=2--------2----------|------------2-------------------|
|-------------------------|--------------------------------|
|-------------------------|--------------------------------|


                             G
               ~~~                        ~~
      |--3--|                    |--3--|
   E  S  S  S  E  E  E   E    E  S  S  S  Q    S   S  S  S
|--------------------------|----------------------------20-|
|-12h13p12----12s19-19-----|-19h20p19----19---19--20-22----|
|----------14-----------21-|----------21-------------------|
|--------------------------|-------------------------------|
|--------------------------|-------------------------------|
|--------------------------|-------------------------------|
|--------------------------|-------------------------------|
|
|              ~~~                        ~~
|     |--3--|                    |--3--|
|  E  S  S  S  E  E  E   E    E  S  S  S  Q    S   S  S  S
|--------------------------|----------------------------17-|
|--7h=8p=7-----7s12-12-----|-12h13p12----12----------------|
|-----------9-----------14-|----------14------16--17-19----|
|--------------------------|-------------------------------|
|--------------------------|-------------------------------|
|--------------------------|-------------------------------|
|--------------------------|-------------------------------|
|
|  E  E        E  E +E   E    Q           E E +E      E
|--------------------------|-------------------------------|
|--------------------------|-------------------------------|
|-----------------4-(4)--4-|----------------4-(4)-----4----|
|--------------------------|-------------------------------|
|--0h=2--------2-----------|-------------------------------|
|--------------------------|--3-----------3----------------|
|--------------------------|-------------------------------|


  B5/F#
               ~~                  ~~
      |--3--|
   E  S  S  S  Q    E   E    E  E  Q    E   E
|-19h20p19----19---19-----|-19-20-19---20--22-|
|----------22----------22-|-------------------|
|-------------------------|-------------------|
|-------------------------|-------------------|
|-------------------------|-------------------|
|-------------------------|-------------------|
|-------------------------|-------------------|
|
|              ~~                  ~~
|     |--3--|
|  E  S  S  S  Q    E   E    E  E  Q    E   E
|-15-17p15----15---15-----|-15-17-15---17--19-|
|----------19----------19-|-------------------|
|-------------------------|-------------------|
|-------------------------|-------------------|
|-------------------------|-------------------|
|-------------------------|-------------------|
|-------------------------|-------------------|
|
|  E  E        E E +E   E    E  E  E E +E   E
|-------------------------|-------------------|
|-------------------------|-------------------|
|----------------4-(4)--4-|--5--4----4-(4)--4-|
|-------------------------|-------------------|
|-------------------------|-------------------|
|--0h=2--------2----------|--------2----------|
|-------------------------|-------------------|


  E5                              B5/D
                                   ~~~~~~~~~~~~
                 |--3--|
   E     +E   E  S  S  S  E   E    H       +E   +E
|-22b24r(22)-20-19h20p19-----19-|--------------------||
|------------------------22-----|-22------(22)-(22)\-||
|-------------------------------|--------------------||
|-------------------------------|--------------------||
|-------------------------------|--------------------||
|-------------------------------|--------------------||
|-------------------------------|--------------------||
|
|                                  ~~~~~~~~~~~~
|                |--3--|
|  E     +E   E  S  S  S  E   E    H       +E   +E
|-19b20r(19)-17-15h17p15-14--15-|-14------(14)-(14)\-||
|-------------------------------|--------------------||
|-------------------------------|--------------------||
|-------------------------------|--------------------||
|-------------------------------|--------------------||
|-------------------------------|--------------------||
|-------------------------------|--------------------||
|
|  Q          E  E       +E   E    Q  E E  +E    E
|-------------------------------|--------------------||
|-------------------------------|--------------------||
|----------------4-------(4)--4-|-------4--(4)---4---||
|-------------------------------|--------------------||
|-------------------------------|--------------------||
|--0----------0-----------------|--------------------||
|-------------------------------|--3--3--------------||


                                      Verse
  N.C.                                 N.C.(B5)
 4/4
  Gtrs I, II
                                       PM------------------|
  |----6----| |----6----|
  S S S S S S S S S S S S S E S Q      S S S S E S S +S  S E Q
|----------------------------------||---------------------------|
|----------------------------------||---------------------------|
|----------------------------------||o--------------------------|
|-5-4-2-------4-2-0----------------||---------------------------|
|-------5-4-2-------4-2-0----------||o--------------------------|
|-------------------------3-2------||---------------------------|
|----------------------------------||--0-0-0-0-0-0-0-(0)-0-0----|


                        N.C. N.C.(B5)
  PM------------------|      PM------------------|
  S S S S E S S +S  S E Q    S S S S E S S +S  S E Q
|--------------------------|--------------------------|
|--------------------------|--------------------------|
|-----------------------5--|--------------------------|
|-----------------------4--|--------------------------|
|--------------------------|--------------------------|
|--------------------------|--------------------------|
|-0-0-0-0-0-0-0-(0)-0-0----|-0-0-0-0-0-0-0-(0)-0-0----|


 7/8

  PM-------------------------
  S S S S E S S S S S S S S
|---------------------------|
|---------------------------|
|---------------------------|
|---------------------------|
|---------------------------|
|---------------------------|
|-0-0-0-0-0-0-0-3-2-0-3-2-0-|


                                                   N.C.
 4/4
 ---------------------|      PM------------------|
  S S S S E S S +S  S E Q    S S S S E S S +S  S E Q
|--------------------------|----------------------------|
|--------------------------|----------------------------|
|--------------------------|-----------------------5----|
|--------------------------|-----------------------4----|
|--------------------------|----------------------------|
|--------------------------|----------------------------|
|-0-0-0-0-0-0-0-(0)-0-0----|-0-0-0-0-0-0-0-(0)-0-0------|


                             1.
  N.C.(B5)                                 C5C#D5
  PM------------------|      PM---------------------
                                           |-3-|
  S S S S E S S +S  S E Q    S S S S E S S q q q
|--------------------------|----------------------||
|--------------------------|----------------------||
|--------------------------|---------------------o||
|--------------------------|----------------------||
|--------------------------|---------------------o||
|--------------------------|---------------3-4-5--||
|-0-0-0-0-0-0-0-(0)-0-0----|-0-0-0-0-0-0-0-1-2-3--||


  2.
  N.C.(B5)      C5C#D5N.C.
 5/4
 -------------------------|
                |-3-| |-3-|
  S S S S E S S q q q E E E
|---------------------------||
|---------------------------||
|---------------------------||
|---------------------------||
|---------------------------||
|---------------3-4-5-------||
|-0-0-0-0-0-0-0-1-2-3-2-3-3-||


 Bridge
  B5C#5       D5C#5       N.C.        B5C#5       D5C#5           B5
 4/4
            PM                                  PM
  E E E E E E E E   E E E E E E E E   E E E E E E E E   E E E E E E +Q
|-----------------|-----------------|-----------------|------------------|
|-----------------|-----------------|-----------------|------------------|
|-----------------|-----------------|-----------------|------------------|
|-----------------|-----------------|-----------------|------------------|
|-----------------|-------x-x---x---|-----------------|------------------|
|-2-4---4---4-5-4-|---4---x-x---x---|-2-4---4---4-5-4-|---4---x-4-2-(2)--|
|-0-2---2---2-3-2-|---2---x-x---x---|-0-2---2---2-3-2-|---2---x-2-0-(0)--|


    C#5       D5C#5       N.C.
            PM
  E E E E E E E E   E E E E E E E E
|-----------------|-----------------|
|-----------------|-----------------|
|-----------------|-----------------|
|-----------------|-----------------|
|-----------------|-------x-x---x---|
|-2-4---4---4-5-4-|---4---x-x---x---|
|-0-2---2---2-3-2-|---2---x-x---x---|


  B5C#5       D5C#5       N.C.
            PM
  E E E E E E E E   E E E E  E   E   E   E
|-----------------|--------------------------||
|-----------------|---------<5>-<5>-<5>-<5>--||
|-----------------|--------------------------||
|-----------------|--------------------------||
|-----------------|--------------------------||
|-2-4---4---4-5-4-|---4---x------------------||
|-0-2---2---2-3-2-|---2---x------------------||


 Pre-Verse
  N.C.(B5)
 3/4
      PM~~~~~~       PM~~~~~~       PM~~~~~~       PM    ~
  E E E E +Q     E E E E +Q     E E E E +Q     E E E   E Q
|--------------|--------------|--------------|--------------|
|--------------|--------------|--------------|--------------|
|--------------|--------------|--------------|--------------|
|--------------|--------------|--------------|--------------|
|--------------|--------------|--------------|-------/10-9--|
|-5h7---7-(7)--|-8-7---7-(7)--|-5h7---7-(7)--|-8-7----------|
|-----0--------|-----0--------|-----0--------|-----0--------|


      PM~~~~~~       PM~~~~~~       PM~~~~~~       PM   ~
  E E E E +Q     E E E E +Q     E E E E +Q     E E E  E Q
|--------------|--------------|--------------|-------------||
|--------------|--------------|--------------|-------------||
|--------------|--------------|--------------|-------------||
|--------------|--------------|--------------|-------------||
|--------------|--------------|--------------|-------------||
|-5h7---7-(7)--|-8-7---7-(7)--|-5h7---7-(7)--|-8-7---------||
|-----0--------|-----0--------|-----0--------|-----0-/8-7--||


 Verse
  N.C.(C#5)
 4/4
  PM------------------|
  S S S S E S S +S  S E Q
|--------------------------|
|--------------------------|
|--------------------------|
|--------------------------|
|--------------------------|
|--------------------------|
|-2-2-2-2-2-2-2-(2)-2-2----|


                        N.C. N.C.(C#5)
  PM------------------|      PM------------------|
  S S S S E S S +S  S E Q    S S S S E S S +S  S E Q
|--------------------------|---------------------------|
|--------------------------|---------------------------|
|-----------------------7--|---------------------------|
|-----------------------6--|---------------------------|
|--------------------------|---------------------------|
|--------------------------|---------------------------|
|-2-2-2-2-2-2-2-(2)-2-2----|-2-2-2-2-2-2-2-(2)-2-2-----|


 7/8
  PM-------------------------
  S S S S E S S S S S S S S
|---------------------------|
|---------------------------|
|---------------------------|
|---------------------------|
|---------------------------|
|---------------------------|
|-2-2-2-2-2-2-2-5-4-2-5-4-2-|


                                                   N.C.
 4/4
 ---------------------|      PM------------------|
  S S S S E S S +S  S E Q    S S S S E S S +S  S E Q
|--------------------------|---------------------------|
|--------------------------|---------------------------|
|--------------------------|-----------------------7---|
|--------------------------|-----------------------6---|
|--------------------------|---------------------------|
|--------------------------|---------------------------|
|-2-2-2-2-2-2-2-(2)-2-2----|-2-2-2-2-2-2-2-(2)-2-2-----|


  N.C.(C#5)                                D5D#E5N.C.
                            5/4
  PM------------------|      PM----------------------|
                                           |-3-| |-3-|
  S S S S E S S +S  S E Q    S S S S E S S q q q E E E
|--------------------------|---------------------------||
|--------------------------|---------------------------||
|--------------------------|---------------------------||
|--------------------------|---------------------------||
|--------------------------|---------------------------||
|--------------------------|---------------5-6-7-------||
|-2-2-2-2-2-2-2-(2)-2-2----|-2-2-2-2-2-2-2-3-4-5-3-2-2-||


 Bridge
  C#Eb5       E5D#5     N.C.      C#D#5       E5D#5       N.C.
 4/4
            PM                              PM
  E E E E E E E E   E E Q  H      E E E E E E E E   E E E E E E E E
|-----------------|-------------|-----------------|------------------|
|-----------------|-------------|-----------------|------------------|
|-----------------|-------------|-----------------|------------------|
|-----------------|-------------|-----------------|------------------|
|-----------------|-------------|-----------------|---------4-6------|
|-4-6---6---6-7-6-|---6---------|-4-6---6---6-7-6-|---6---x-----7-6--|
|-2-4---4---4-5-4-|---4---------|-2-4---4---4-5-4-|---4---x----------|


  C#D#5       E5D#5     N.C.      C#D#5       E5D#5       N.C.
            PM                              PM
  E E E E E E E E   E E Q  H      E E E E E E E E   E E E E E E  E E
|-----------------|-------------|-----------------|-------------------|
|-----------------|-------------|-----------------|-------------------|
|-----------------|-------------|-----------------|-------------------|
|-----------------|-------------|-----------------|-------------------|
|-----------------|-------------|-----------------|---------4---------|
|-4-6---6---6-7-6-|---6---------|-4-6---6---6-7-6-|---6---------/7-6--|
|-2-4---4---4-5-4-|---4---------|-2-4---4---4-5-4-|---4-------4-------|


  N.C.(B5)
 3/4
      PM~~~~~~       PM~~~~~~       PM~~~~~~       PM    ~
  E E E E +Q     E E E E +Q     E E E E +Q     E E E   E Q
|--------------|--------------|--------------|--------------|
|--------------|--------------|--------------|--------------|
|--------------|--------------|--------------|--------------|
|--------------|--------------|--------------|--------------|
|--------------|--------------|--------------|-------/10-9--|
|-5h7---7-(7)--|-8-7---7-(7)--|-5h7---7-(7)--|-8-7----------|
|-----0--------|-----0--------|-----0--------|-----0--------|


      PM~~~~~~       PM~~~~~~       PM~~~~~~       PM   ~
  E E E E +Q     E E E E +Q     E E E E +Q     E E E  E Q
|--------------|--------------|--------------|-------------||
|--------------|--------------|--------------|-------------||
|--------------|--------------|--------------|-------------||
|--------------|--------------|--------------|-------------||
|--------------|--------------|--------------|-------------||
|-5h7---7-(7)--|-8-7---7-(7)--|-5h7---7-(7)--|-8-7---------||
|-----0--------|-----0--------|-----0--------|-----0-/8-7--||


 Pre-Chorus
  N.C.(B5)
                                                           ~
  E E E E +E  E   E E E E +E  E   E E E E +E  E   E E E  E Q
|---------------|---------------|---------------|-------------|
|---------------|---------------|---------------|-------------|
|-------4-(4)-4-|-5-4---4-(4)-4-|-------4-(4)-4-|-5-4---------|
|---------------|---------------|---------------|-------/5-4--|
|-0h2-2---------|-----2---------|-0h2-2---------|-----2-------|
|---------------|---------------|---------------|-------------|
|---------------|---------------|---------------|-------------|


  E5                             G              B5/A
  Q  E E +E  E   E E E E +E  E   Q  E E +E  E   Q  E E +E  E
|--------------|---------------|--------------|--------------|
|--------------|---------------|--------------|--------------|
|------4-(4)-4-|-5-4---4-(4)-4-|------4-(4)-4-|------4-(4)-4-|
|--------------|---------------|--------------|--------------|
|--------------|---------------|--------------|-0--0---------|
|-0--0---------|-----0---------|-3--3---------|--------------|
|--------------|---------------|--------------|--------------|


  N.C.(B5)                                        G
  E E E E +E  E   E E E E +E  E   E E E E +E  E   Q  E E +E  E
|---------------|---------------|---------------|--------------|
|---------------|---------------|---------------|--------------|
|-------4-(4)-4-|-5-4---4-(4)-4-|-------4-(4)-4-|------4-(4)-4-|
|---------------|---------------|---------------|--------------|
|-0h2-2---------|-----2---------|-0h2-2---------|--------------|
|---------------|---------------|---------------|-3--3---------|
|---------------|---------------|---------------|--------------|


  B5/F#                           E5             B5/D
  E E E E +E  E   E E E E +E  E   Q  E E +E  E   Q  E E +E  E
|---------------|---------------|--------------|--------------||
|---------------|---------------|--------------|--------------||
|-------4-(4)-4-|-5-4---4-(4)-4-|------4-(4)-4-|------4-(4)-4-||
|---------------|---------------|--------------|--------------||
|---------------|---------------|--------------|--------------||
|-0h2-2---------|-----2---------|-0--0---------|--------------||
|---------------|---------------|--------------|-3--3---------||

[ Tab from: http://www.guitartabs.cc/tabs/d/dream_theater/this_dying_soul_tab.html ]
 Chorus
  N.C.(B5)
  Gtr I
               ~~~~~~~~~            ~~
      |--3--|                                |--3--|
   E  S  S  S  E  E  E   E    E  E  Q    E   S  S  S
|--------------------------|-------------------------|
|-12h13p12----12-12-12-----|-12-13-12---12h=13p12----|
|----------14-----------14-|----------------------14-|
|--------------------------|-------------------------|
|--------------------------|-------------------------|
|--------------------------|-------------------------|
|--------------------------|-------------------------|
|
| Gtr II
|              ~~~~~~~~~            ~~
|     |--3--|                                |--3--|
|  E  S  S  S  E  E  E   E    E  E  Q    E   S  S  S
|--------------------------|-------------------------|
|--------------------------|-------------------------|
|--4h=5p=4-----4--4--4-----|--4--5--4----4h==5p=4----|
|-----------7------------7-|-----------------------7-|
|--------------------------|-------------------------|
|--------------------------|-------------------------|
|--------------------------|-------------------------|
|
| Gtr III
|  E  E        E  E +E   E    E  E  E E +E   E
|--------------------------|-------------------------|
|--------------------------|-------------------------|
|-----------------4-(4)--4-|--5--4----4-(4)--4-------|
|--------------------------|-------------------------|
|--0h=2--------2-----------|--------2----------------|
|--------------------------|-------------------------|
|--------------------------|-------------------------|


         ~~                  ~~~
   E  E  Q    E   E    E  E  Q.      +E
|-------------------|---------------------|
|-12s19-19---19--17-|-19-20-19------(19)\-|
|-------------------|---------------------|
|-------------------|---------------------|
|-------------------|---------------------|
|-------------------|---------------------|
|-------------------|---------------------|
|
|        ~~                  ~~~
|  E  E  Q    E   E    E  E  Q.      +E
|-------------------|---------------------|
|-------------------|---------------------|
|--4s11-11---11---9-|-11-12-11------(11)\-|
|-------------------|---------------------|
|-------------------|---------------------|
|-------------------|---------------------|
|-------------------|---------------------|
|
|  E  E  E E +E   E    E  E  E  E Q
|-------------------|---------------------|
|-------------------|---------------------|
|----------4-(4)--4-|--5--4---------------|
|-------------------|-----------5-4-------|
|--0h=2--2----------|--------2------------|
|-------------------|---------------------|
|-------------------|---------------------|


  E5
               ~~~~~~~~~            ~~
      |--3--|
   E  S  S  S  E  E  E   E    E  E  Q     E   E
|--------------------------|--------------------|
|-12h13p12----12-12-12-----|-12-13-12---/19--20-|
|----------14-----------14-|--------------------|
|--------------------------|--------------------|
|--------------------------|--------------------|
|--------------------------|--------------------|
|--------------------------|--------------------|
|
|              ~~~~~~~~~            ~~
|     |--3--|
|  E  S  S  S  E  E  E   E    E  E  Q     E   E
|--------------------------|--------------------|
|--------------------------|------------/15--17-|
|--4h=5p=4-----4--4--4-----|--4--5--4-----------|
|-----------7------------7-|--------------------|
|--------------------------|--------------------|
|--------------------------|--------------------|
|--------------------------|--------------------|
|
|  Q           E  E +E   E    E  E  E E  +E   E
|--------------------------|--------------------|
|--------------------------|--------------------|
|-----------------4-(4)--4-|--5--4----4--(4)--4-|
|--------------------------|--------------------|
|--------------------------|--------------------|
|--0-----------0-----------|--------0-----------|
|--------------------------|--------------------|


  G                      B5/A
   ~~                     ~~~~~~~~~~~~
               |--3--|
   H       E   S  S  S    H       +E   +E
|----------------------|--------------------|
|-22------20--19h20p19-|--------------------|
|----------------------|-21------(21)-(21)\-|
|----------------------|--------------------|
|----------------------|--------------------|
|----------------------|--------------------|
|----------------------|--------------------|
|
|  ~~                     ~~~~~~~~~~~~
|              |--3--|
|  H       E   S  S  S    H       +E   +E
|----------------------|--------------------|
|-19------17--15h17p15-|--------------------|
|----------------------|--------------------|
|----------------------|-19------(19)-(19)\-|
|----------------------|--------------------|
|----------------------|--------------------|
|----------------------|--------------------|
|
|  Q  E E +E   E          Q  E E  +E    E
|----------------------|--------------------|
|----------------------|--------------------|
|-------4-(4)--4-------|-------4--(4)---4---|
|----------------------|--------------------|
|----------------------|--0--0--------------|
|--3--3----------------|--------------------|
|----------------------|--------------------|


  N.C.(B5)
               ~~~~~~~~~
      |--3--|
   E  S  S  S  E  E  E  E    S S  S S  S S  S S  S  S  S S
|-------------------------|--------------------------------|
|-12h13p12----12-12-12--0-|-12-0-13-0-12-0-10-0-12--0-13-0-|
|----------14-------------|--------------------------------|
|-------------------------|--------------------------------|
|-------------------------|--------------------------------|
|-------------------------|--------------------------------|
|-------------------------|--------------------------------|
|
|              ~~~~~~~~~
|     |--3--|
|  E  S  S  S  E  E  E  E    S S  S S  S S  S S  S  S  S S
|-------------------------|--------------------------------|
|-----------------------0-|--7-0--8-0--7-0--5-0--7--0--8-0-|
|--4h=5p=4-----4--4--4----|--------------------------------|
|-----------7-------------|--------------------------------|
|-------------------------|--------------------------------|
|-------------------------|--------------------------------|
|-------------------------|--------------------------------|
|
|  E  E        E  E +E  E    E    E    E    E   +E     E
|-------------------------|--------------------------------|
|-------------------------|--------------------------------|
|-----------------4-(4)-4-|--5----4---------4---(4)----4---|
|-------------------------|--------------------------------|
|--0h=2--------2----------|------------2-------------------|
|-------------------------|--------------------------------|
|-------------------------|--------------------------------|


               ~~~                        ~~
      |--3--|                    |--3--|
   E  S  S  S  E  E  E   E    E  S  S  S  Q   S  S  S  S
|--------------------------|--------------------------20-|
|-12h13p12----12s19-19-----|-19h20p19----19--19-20-22----|
|----------14-----------21-|----------21-----------------|
|--------------------------|-----------------------------|
|--------------------------|-----------------------------|
|--------------------------|-----------------------------|
|--------------------------|-----------------------------|
|
|              ~~~                        ~~
|     |--3--|                    |--3--|
|  E  S  S  S  E  E  E   E    E  S  S  S  Q   S  S  S  S
|--------------------------|--------------------------14-|
|--7h=8p=7-----7s12-12-----|-12h13p12----12--12-13-15----|
|-----------9-----------14-|----------14-----------------|
|--------------------------|-----------------------------|
|--------------------------|-----------------------------|
|--------------------------|-----------------------------|
|--------------------------|-----------------------------|
|
|  E  E        E  E +E   E    Q           Q   Q
|--------------------------|-----------------------------|
|--------------------------|-----------------------------|
|-----------------4-(4)--4-|-----------------------------|
|--------------------------|--5-----------5---5----------|
|--0h=2--------2-----------|-----------------------------|
|--------------------------|-----------------------------|
|--------------------------|-----------------------------|


  B5/F#
   |--3--|                                   |--3--|
   S  S  S  S  S  S  S  S  S  S   S  S  S    S  S  S  S  S  S  S  S  S  S   S  S  S
|-19h20p19----19-----------------19-20-22-|-----------------------------------------|
|----------22----22-20-19-20-22-----------|-19h20p19----19-----------------19-20-22-|
|-----------------------------------------|----------21----21-19-17-19-21-----------|
|-----------------------------------------|-----------------------------------------|
|-----------------------------------------|-----------------------------------------|
|-----------------------------------------|-----------------------------------------|
|-----------------------------------------|-----------------------------------------|
|
|  |--3--|                                   |--3--|
|  S  S  S  S  S  S  S  S  S  S   S  S  S    S  S  S  S  S  S  S  S  S  S   S  S  S
|-12h14p12----12-----------------12-14-15-|-----------------------------------------|
|----------15----15-13-12-13-15-----------|-12h13p12----12-----------------12-13-15-|
|-----------------------------------------|----------14----14-12-11-12-14-----------|
|-----------------------------------------|-----------------------------------------|
|-----------------------------------------|-----------------------------------------|
|-----------------------------------------|-----------------------------------------|
|-----------------------------------------|-----------------------------------------|
|
|  E        E     E     E    +E      E       E        E     E     E    +E      E
|-----------------------------------------|-----------------------------------------|
|-----------------------------------------|-----------------------------------------|
|-----------------------4----(4)-----4----|--5--------4-----------4----(4)-----4----|
|-----------------------------------------|-----------------------------------------|
|-----------------------------------------|-----------------------------------------|
|--0h=======2-----2-----------------------|-----------------2-----------------------|
|-----------------------------------------|-----------------------------------------|


  E5                                        N.C.
   |--3--|
   S  S  S  S  S  S  S  S  S  S   S  S  S    S  S  S  S  S  S  S  S  S  S  S  S
|-----------------------------------------|----------17-19-20----19-20-19-20-22-||
|-----------------------------------------|-17-19-20----------22----------------||
|-16h17p16----16-----------------16-17-19-|-------------------------------------||
|----------19----19-17-16-17-19-----------|-------------------------------------||
|-----------------------------------------|-------------------------------------||
|-----------------------------------------|-------------------------------------||
|-----------------------------------------|-------------------------------------||
|
|  |--3--|
|  S  S  S  S  S  S  S  S  S  S   S  S  S    S  S  S  S  S  S  S  S  S  S  S  S
|-----------------------------------------|----------------------------------17-||
|-----------------------------------------|----------17-19-20-17-19-20-19-20----||
|-----------------------------------------|-16-17-19----------------------------||
|-16h17p16----16-----------------16-17-19-|-------------------------------------||
|----------19----19-17-15-17-19-----------|-------------------------------------||
|-----------------------------------------|-------------------------------------||
|-----------------------------------------|-------------------------------------||
|
|  Q              E     E    +E      E       Q           Q           Q
|-----------------------------------------|-------------------------------------||
|-----------------------------------------|-------------------------------------||
|-----------------------4----(4)-----4----|-------------------------------------||
|-----------------------------------------|-------------------------------------||
|-----------------------------------------|-------------------------------------||
|--0--------------0-----------------------|-------------------------------------||
|-----------------------------------------|--3-----------1-----------0----------||


 Interlude
  E5                         C#5
 5/4
  Gtrs I, II
                 PM
   Q.   Q        E   Q  Q    Q.   Q.   Q  Q
|--------------------0--0--|-----------------|
|--------------------0--0--|-----------------|
|--------------------4--4--|-----------------|
|--2----2------------2--2--|-----------------|
|--2----2--------2---------|-----------------|
|--0----0--------0---------|-----------------|
|--------------------------|-2----2----2--2--|
|
| Gtr III
|  ~~~
|  H       +E   +E   H       W
|-24------(24)-(24)\-------|-----------------|
|-24------(24)-(24)\-------|-----------------|
|--------------------------|-----------------|
|--------------------------|-----------------|
|--------------------------|-----------------|
|--------------------------|-----------------|
|--------------------------|-----------------|


  C5                   F#5  G5   A5
 6/4                  4/4
  Q.   Q  E Q  Q  Q    Q.   Q.   E E
|--------------------|-----------------|
|--------------------|-----------------|
|--------------------|-----------------|
|--------------------|-----------4-4---|
|-3----3--3-3--3--3--|-----------2-2---|
|-3----3--3-3--3--3--|-2----3----------|
|-1----1--1-1--1--1--|-----------------|
|
| W                    W
|--------------------|-----------------|
|--------------------|-----------------|
|--------------------|-----------------|
|--------------------|-----------------|
|--------------------|-----------------|
|--------------------|-----------------|
|--------------------|-----------------|


  E5                N.C.
 5/4
          PM                PM
  Q.   Q  E Q  Q    Q.   Q  E Q  Q
|-----------0--0--|-----------------|
|-----------0--0--|-----------------|
|-----------4--4--|-----------------|
|-2----2----2--2--|-5----5----5--5--|
|-2----2--2-------|-4----4--4-4--4--|
|-0----0--0-------|-----------------|
|-----------------|-----------------|


  C5                   N.C.
 6/4
                       ~~~~~~~~     PM--|
                                    |-3-|
  Q.   Q  E Q  Q  Q    Q.   Q.   Q  Q Q Q
|--------------------|---------------------||
|--------------------|---------------------||
|--------------------|---------------------||
|--------------------|---------------------||
|-3----3--3-3--3--3--|---------------------||
|-3----3--3-3--3--3--|-5----3----2--3-2-3--||
|-1----1--1-1--1--1--|---------------------||


   Bridge
    E5                C#5               C5                   N.C.
   5/4                                 6/4                  4/4
            PM
    Q.   Q  E Q  Q    Q.   Q.   Q  Q    Q.   Q  E Q  Q  Q    Q.   Q.   Q
||------------0--0--|-----------------|--------------------|---------------|
||------------0--0--|-----------------|--------------------|---------------|
||o-----------4--4--|-----------------|--------------------|---------------|
||--2----2----2--2--|-----------------|--------------------|---------------|
||o-2----2--2-------|-----------------|-3----3--3-3--3--3--|-----------2---|
||--0----0--0-------|-----------------|-3----3--3-3--3--3--|-2----3--------|
||------------------|-2----2----2--2--|-1----1--1-1--1--1--|---------------|


                                                           1.
  E5                N.C.              C5                   N.C.
 5/4                                 6/4                  4/4
          PM                PM                             ~~~~~~~~
  Q.   Q  E Q  Q    Q.   Q  E Q  Q    Q.   Q  E Q  Q  Q    Q.   Q.   Q
|-----------0--0--|-----------------|--------------------|-----------------||
|-----------0--0--|-----------------|--------------------|-----------------||
|-----------4--4--|-----------------|--------------------|----------------o||
|-2----2----2--2--|-5----5----5--5--|--------------------|-----------------||
|-2----2--2-------|-4----4--4-4--4--|-3----3--3-3--3--3--|----------------o||
|-0----0--0-------|-----------------|-3----3--3-3--3--3--|-5----3----2-----||
|-----------------|-----------------|-1----1--1-1--1--1--|-----------------||


  2.
  N.C.
  ~~~~~~~~~~~~              ~~~~~
  Q.   Q.   Q    +E  E +Q   Q  Q
|--------------|------------------|
|--------------|------------------|
|--------------|------------------|
|--------------|------------------|
|--------------|------------------|
|-5----3----2--|-(2)-0-(0)--------|
|--------------|------------3--1--|


    Q=96
    N.C.(B5)
   6/4
    S S S S E. S S S S S S S S S E. S S S S S
||----------------------------------------------||
||----------------------------------------------||
||o--------------------------------------------o||
||----------------------------------------------||
||o--------------------------------------------o||
||------2-2--------2-2-------2-2--------2-2-----||
||--1p0-0-0----1p0-0-0---1p0-0-0----1p0-0-0-----||


    Q.=128
   12/8
    E E E E Q  E E E E E E   E E E E Q  E E E E E E
||-------------------------|-------------------------||
||-------------------------|-------------------------||
||o------------------------|------------------------o||
||-------------------------|-------------------------||
||o------------------------|------------------------o||
||------2-2----------2-2---|-----2-2----------2-2----||
||--1p0-0-0------1p0-0-0---|-1p0-0-0------1p0-0-0----||


    Q=96
    N.C.
   4/4
            PM                                  PM
    S S S S S S S S S S S S S S S S  3x S S S S S S S S S S S S S S S S
||-----------------------------------||----------------------------------|
||-----------------------------------||----------------------------------|
||o---------------------------------o||----------------------------------|
||-----------------------------------||----------------------------------|
||o---------------------------------o||-----------------4----------------|
||------4-2---5-2---4-2--------------||-----4-2---5-2-----4-5-2-4--------|
||--0-2-----3-----3-----3-2-0-2-3-2--||-0-2-----3-----3-----------2-0-3--|


  Q.=128
 6/4
  E E E E Q  E E E E E E   E E E E Q  E E E E E E
|------------------------|------------------------|
|------------------------|------------------------|
|------------------------|------------------------|
|------------------------|------------------------|
|------------------------|------------------------|
|-----2-2----------2-2---|-----2-2----------2-2---|
|-1p0-0-0------1p0-0-0---|-1p0-0-0------1p0-0-0---|


  Q=96
  N.C.
 4/4
          PM                                PM
  S S S S S S S S S S S S S S S S   S S S S S S S S S S S S S S S S
|---------------------------------|---------------------------------|
|---------------------------------|---------------------------------|
|---------------------------------|---------------------------------|
|---------------------------------|---------------------------------|
|---------------------------------|-----------------4---------------|
|-----4-2---5-2---4-2-------------|-----4-2---5-2-----4-5-2-4-------|
|-0-2-----3-----3-----3-2-0-2-3-2-|-0-2-----3-----3-----------2-0-3-|


          PM                                PM
  S S S S S S S S S S S S S S S S   S S S S S S S S S S S S S S S S
|---------------------------------|---------------------------------|
|---------------------------------|---------------------------------|
|---------------------------------|---------------------------------|
|---------------------------------|---------------------------------|
|-----4-2---5-2---4-2-------------|-----4-2---5-2---4-2-------------|
|-0-2-----3-----3-----3-2-0-2-3-2-|-0-2-----3-----3-----3-2-0-2-3-2-|
|---------------------------------|---------------------------------|


              PM
  S  S  S  S  S  S  S  S  S  S  S  S S  S  S  S
|-----------------------------------------------|
|-----------------------------------------------|
|-----------------------------------------------|
|-----------------------------------------------|
|------16-14----17-14----16-14------------------|
|-0-14-------15-------15-------15-14-0-14-15-14-|
|-----------------------------------------------|


              PM
  S  S  S  S  S  S  S  S  S  S  S  S  S  S  S  S
|------------------------------------------------||
|------------------------------------------------||
|------------------------------------------------||
|------------------------16----------------------||
|------16-14----17-14-------16-17-14-16-------14-||
|-0-14-------15-------15----------------14-12----||
|------------------------------------------------||


   Verse
    Q=192
    N.C.(E5)
    PM-------------------------------------
    E E E E E S S E E   E E E E E E E S S
||--------------------|-------------------|
||--------------------|-------------------|
||o-------------------|-------------------|
||--------------------|-------------------|
||o-------------------|-------------------|
||--3-0-0-0-0-6-6-0-0-|-0-0-3-0-0-0-0-8-7-|
||--------------------|-------------------|


                       6/4
 ---------------------------------------------------|
  E S S E E E E S S E   E E E S S E E E E S S E S S E
|---------------------|--------------------------------|
|---------------------|--------------------------------|
|---------------------|--------------------------------|
|---------------------|--------------------------------|
|---------------------|--------------------------------|
|-0-3-2-0-0-0-0-8-7-0-|-0-0-0-3-2-0-0-0-0-5-5-0-3-3-0--|
|---------------------|--------------------------------|


 4/4
  PM-------------------------------------
  E E E E E S S E E   E E S S E E E E E
|-------------------|-------------------|
|-------------------|-------------------|
|-------------------|-------------------|
|-------------------|-------------------|
|-------------------|-------------------|
|-3-0-0-0-0-6-6-0-0-|-0-0-3-3-0-0-0-0-0-|
|-------------------|-------------------|


                     6/4
 -------------------------------------------------|
  E S S E E E E E E   E E E S S E E E E S S E S S E
|-------------------|---------------------------------|
|-------------------|---------------------------------|
|-------------------|---------------------------------|
|-------------------|---------------------------------|
|-------------------|---------------------------------|
|-0-3-2-0-0-5-0-7-0-|-0-0-0-3-2-0-0-0-0-5-5-0-3-3-0---|
|-------------------|---------------------------------|


 4/4
  E E E E +E  E E E   +E  E E E E E E E
|-------------------|--------------------||
|-------------------|--------------------||
|-------------------|-------------------o||
|-------------------|--------------------||
|-4-2---5-(5)-2---4-|-(4)-2-------------o||
|-----3---------3---|-------3-2-0-2-3-2--||
|-------------------|--------------------||


  E E E E +E  E E E   +E  E E E E E E E
|-------------------|-------------------||
|-------------------|-------------------||
|-------------------|-------------------||
|-------------------|-------------------||
|-4-2---5-(5)-2---4-|-(4)-2-------------||
|-----3---------3---|-------3-2-0-2-3-2-||
|-------------------|-------------------||


   Chorus
    A5B5    A5B5  C5        F#G5  A5  C5
    E E E E E E E  E   E  E E E E E E  E
||-------------------|-------------------|
||-------------------|-------------------|
||o------------------|-------------------|
||-------------------|-------------------|
||o-7s9---9s7s9-9s10-|---10-4s5-5s7-7s10-|
||--5s7---7s5s7-7s=8-|----8-2s3-3s5-5s=8-|
||-------------------|-------------------|


  A5B5    A5B5  C5        F#G5  A5G5F#5
  E E E E E E E  E   E  E E E E E E E
|------------------|-------------------||
|------------------|-------------------||
|------------------|------------------o||
|------------------|-------------------||
|-7s9---9s7s9-9s10-|---10-4s5-5s7-5s4-o||
|-5s7---7s5s7-7s=8-|----8-2s3-3s5-3s2--||
|------------------|-------------------||


 Interlude
  Q=96
  N.C.
          PM                                PM
  S S S S S S S S S S S S S S S S   S S S S S S S S S S S S S S S S
|---------------------------------|---------------------------------|
|---------------------------------|---------------------------------|
|---------------------------------|---------------------------------|
|---------------------------------|---------------------------------|
|-----4-2---5-2---4-2-------------|-----4-2---5-2---4-2-------------|
|-0-2-----3-----3-----3-2-0-2-3-2-|-0-2-----3-----3-----3-2-0-2-3-2-|
|---------------------------------|---------------------------------|


              PM
  S  S  S  S  S  S  S  S  S  S  S  S S  S  S  S
|-----------------------------------------------|
|-----------------------------------------------|
|-----------------------------------------------|
|-----------------------------------------------|
|------16-14----17-14----16-14------------------|
|-0-14-------15-------15-------15-14-0-14-15-14-|
|-----------------------------------------------|


              PM
  S  S  S  S  S  S  S  S  S  S  S  S  S  S  S  S
|------------------------------------------------||
|------------------------------------------------||
|------------------------------------------------||
|------------------------16----------------------||
|------16-14----17-14-------16-17-14-16-------14-||
|-0-14-------15-------15----------------14-12----||
|------------------------------------------------||


   Verse
    Q=192
    N.C.(E5)
                         9/8
    PM-----------------------------------------
    S S E E E E S S E E   E E S S E E E E E E
||----------------------|---------------------|
||----------------------|---------------------|
||o---------------------|---------------------|
||----------------------|---------------------|
||o---------------------|---------------------|
||--3-2-0-7-0-0-8-7-0-0-|-0-0-3-2-0-0-0-0-8-0-|
||----------------------|---------------------|


 4/4                 11/8
 -----------------------------------------------|
  S S E E E E E E E   E E S S E E E E S S E S S E
|-------------------|-------------------------------|
|-------------------|-------------------------------|
|-------------------|-------------------------------|
|-------------------|-------------------------------|
|-------------------|-------------------------------|
|-3-2-0-0-5-0-8-0-0-|-0-0-3-2-0-0-0-0-8-7-0-3-2-0---|
|-------------------|-------------------------------|


 4/4                   9/8
  PM-----------------------------------------
  S S E E E E S S E E   E E S S E E E E E E
|---------------------|---------------------|
|---------------------|---------------------|
|---------------------|---------------------|
|---------------------|---------------------|
|---------------------|---------------------|
|-3-2-0-7-0-0-8-7-0-0-|-0-0-3-2-0-0-0-0-8-0-|
|---------------------|---------------------|


 4/4                 11/8
 -----------------------------------------------|
  S S E E E E E E E   E E S S E E E E S S E S S E
|-------------------|------------------------------|
|-------------------|------------------------------|
|-------------------|------------------------------|
|-------------------|------------------------------|
|-------------------|------------------------------|
|-3-2-0-0-5-0-8-0-0-|-0-0-3-2-0-0-0-0-8-7-0-3-2-0--|
|-------------------|------------------------------|


  N.C.
 4/4
  E E E E +E  E E E   +E  E E E E E E E
|-------------------|--------------------||
|-------------------|--------------------||
|-------------------|-------------------o||
|-------------------|--------------------||
|-4-2---5-(5)-2---4-|-(4)-2-------------o||
|-----3---------3---|-------3-2-0-2-3-2--||
|-------------------|--------------------||


  E E E E +E  E E E   +E  E E E E E E E
|-------------------|-------------------||
|-------------------|-------------------||
|-------------------|-------------------||
|-------------------|-------------------||
|-4-2---5-(5)-2---4-|-(4)-2-------------||
|-----3---------3---|-------3-2-0-2-3-2-||
|-------------------|-------------------||


   Chorus
    A5B5    A5B5  C5        F#G5  A5  C5
    E E E E E E E  E   E  E E E E E E  E
||-------------------|-------------------|
||-------------------|-------------------|
||o------------------|-------------------|
||-------------------|-------------------|
||o-7s9---9s7s9-9s10-|---10-4s5-5s7-7s10-|
||--5s7---7s5s7-7s=8-|----8-2s3-3s5-5s=8-|
||-------------------|-------------------|


  A5B5    A5B5  C5        F#G5  A5G5F#5
  E E E E E E E  E   E  E E E E E E E
|------------------|-------------------||
|------------------|-------------------||
|------------------|------------------o||
|------------------|-------------------||
|-7s9---9s7s9-9s10-|---10-4s5-5s7-5s4-o||
|-5s7---7s5s7-7s=8-|----8-2s3-3s5-3s2--||
|------------------|-------------------||


 Interlude
  Q=96
  N.C.
          PM                                PM              PM--------|
                                                            |-3-| |-3-|
  S S S S S S S S S S S S S S S S   S S S S S S S S S S S S S S S S S S
|---------------------------------|--------------------------------------|
|---------------------------------|--------------------------------------|
|---------------------------------|--------------------------------------|
|---------------------------------|--------------------------------------|
|---------------------------------|--------------------------------------|
|-----4-2---5-2---4-2-------------|-----4-2---5-2---4-2------------------|
|-0-2-----3-----3-----3-2-0-2-3-2-|-0-2-----3-----3-----3-2-0-0-2-3-2-0--|


          PM                                PM
  S S S S S S S S S S S S S S S S   S S S S S S S S S S S S S S S S
|---------------------------------|---------------------------------|
|---------------------------------|---------------------------------|
|---------------------------------|---------------------------------|
|---------------------------------|---------------------------------|
|---------------------------------|-----------------4---------------|
|-----4-2---5-2---4-2-------------|-----4-2---5-2-----4-5-2-4-------|
|-0-2-----3-----3-----3-2-0-2-3-2-|-0-2-----3-----2-----------2-0-3-|


    Q=132
    E5F#5       G5F#5       E5F#5       A#5
   11/8
    PM------------------------|   PM--------|
    S S S S S S S S S S S S S S S S S S S S S S
||----------------------------------------------|
||----------------------------------------------|
||o---------------------------------------------|
||----------------------------------------------|
||o-2-4---4---4-5-4---4---4-2-4---4---4-8---8---|
||--0-2---2---2-3-2---2---2-0-2---2---2-6---6---|
||----------------------------------------------|


  E5F#5       G5F#5       E5F#5       C5
  PM------------------------|   PM---------|
  S S S S S S S S S S S S S S S S S S  S S  S S
|-------------------------------------------------|
|-------------------------------------------------|
|-------------------------------------------------|
|-------------------------------------------------|
|-2-4---4---4-5-4---4---4-2-4---4---4-10---10-----|
|-0-2---2---2-3-2---2---2-0-2---2---2--8----8-----|
|-------------------------------------------------|


  Q=272
  N.C.
 4/4
  PM-----------------------------------------------------
  E E E E E E E E   E E E E E E E E   E E E E E E E E
|-----------------|-----------------|------------------||
|-----------------|-----------------|------------------||
|-----------------|-----------------|-----------------o||
|-----------------|-----------------|------------------||
|-----------------|-----------------|-----------------o||
|-5-4-2-5-4-2-5-4-|-2-5-4-2-5-4-2-5-|-4-2-5-4-2-5-4-2--||
|-----------------|-----------------|------------------||


 ---------------------------------------------------|
  E E E E E E E E   E E E E E E E E   E E E E E E E E
|-----------------|-----------------|--------------------|
|-----------------|-----------------|--------------------|
|-----------------|-----------------|--------------------|
|-----------------|-----------------|--------------------|
|-----------------|-----------------|--------------------|
|-5-4-2-5-4-2-5-4-|-2-5-4-2-5-4-2-5-|-4-2-5-4-2-5-4-2----|
|-----------------|-----------------|--------------------|


    Q=132
    E5F#5       G5F#5       E5F#5       A#5
   11/8
    PM------------------------|   PM--------|
    S S S S S S S S S S S S S S S S S S S S S S
||----------------------------------------------|
||----------------------------------------------|
||o---------------------------------------------|
||----------------------------------------------|
||o-2-4---4---4-5-4---4---4-2-4---4---4-8---8---|
||--0-2---2---2-3-2---2---2-0-2---2---2-6---6---|
||----------------------------------------------|


  E5F#5       G5F#5       E5F#5       C5
  PM------------------------|   PM---------|
  S S S S S S S S S S S S S S S S S S  S S  S S
|-------------------------------------------------|
|-------------------------------------------------|
|-------------------------------------------------|
|-------------------------------------------------|
|-2-4---4---4-5-4---4---4-2-4---4---4-10---10-----|
|-0-2---2---2-3-2---2---2-0-2---2---2--8----8-----|
|-------------------------------------------------|


  Q=272
  N.C.
 4/4
  PM-----------------------------------------------------
  E E E E E E E E   E E E E E E E E   E E E E E E E E
|-----------------|-----------------|------------------||
|-----------------|-----------------|------------------||
|-----------------|-----------------|-----------------o||
|-----------------|-----------------|------------------||
|-----------------|---------4-2-----|-4-2-----4-2-----o||
|-5-4-2-5-4-2-5-4-|-2-5-4-2-----3-2-|-----3-2-----3-2--||
|-----------------|-----------------|------------------||


 ---------------------------------------------------|
  E E E E E E E E   E E E E E E E E   E E E E E E E E
|-----------------|-----------------|--------------------|
|-----------------|-----------------|--------------------|
|-----------------|-----------------|--------------------|
|-----------------|-----------------|--------------------|
|-----------------|---------4-2-----|-4-2-----4-2--------|
|-5-4-2-5-4-2-5-4-|-2-5-4-2-----3-2-|-----3-2-----3-2----|
|-----------------|-----------------|--------------------|


  Q=132
  E5F#5       G5F#5       E5F#5       A#5
 11/8
  PM------------------------|   PM--------|
  S S S S S S S S S S S S S S S S S S S S S S
|---------------------------------------------|
|---------------------------------------------|
|---------------------------------------------|
|---------------------------------------------|
|-2-4---4---4-5-4---4---4-2-4---4---4-8---8---|
|-0-2---2---2-3-2---2---2-0-2---2---2-6---6---|
|---------------------------------------------|


  E5F#5       G5F#5       E5F#5       C5
  PM------------------------|   PM---------|
  S S S S S S S S S S S S S S S S S S  S S  S S
|-----------------------------------------------|
|-----------------------------------------------|
|-----------------------------------------------|
|-----------------------------------------------|
|-2-4---4---4-5-4---4---4-2-4---4---4-10---10---|
|-0-2---2---2-3-2---2---2-0-2---2---2--8----8---|
|-----------------------------------------------|


  E5F#5           G5F#5           E5F#5           A#5
  S S +S  S +S  S S S +S  S +S  S S S +S  S +S  S S +S  E
|---------------------------------------------------------|
|---------------------------------------------------------|
|---------------------------------------------------------|
|---------------------------------------------------------|
|-2-4-(4)-4-(4)-4-5-4-(4)-4-(4)-4-2-4-(4)-4-(4)-4-8-(8)-8-|
|-0-2-(2)-2-(2)-2-3-2-(2)-2-(2)-2-0-2-(2)-2-(2)-2-6-(6)-6-|
|---------------------------------------------------------|


  E5F#5           G5F#5           E5F#5           C5
  S S +S  S +S  S S S +S  S +S  S S S +S  S +S  S  S  +S   E
|------------------------------------------------------------||
|------------------------------------------------------------||
|------------------------------------------------------------||
|------------------------------------------------------------||
|-2-4-(4)-4-(4)-4-5-4-(4)-4-(4)-4-2-4-(4)-4-(4)-4-10-(10)-10-||
|-0-2-(2)-2-(2)-2-3-2-(2)-2-(2)-2-0-2-(2)-2-(2)-2--8--(8)--8-||
|------------------------------------------------------------||


   Keyboard solo
    Q=172
    N.C.
   4/4                                          5/4
                        |-3-|                          |-3-|
    Q  Q  Q  Q    Q  Q  E E E Q    Q  Q  Q  Q    Q  Q  E E E Q  Q    4x
||--------------|----------------|-------------|---------------------||
||--------------|----------------|-------------|---------------------||
||o-------------|----------------|-------------|--------------------o||
||--------------|----------------|-------------|---------------------||
||o----4--5-----|----------------|----4--5-----|----4---------------o||
||--------------|----5--4-2------|-------------|-------4-2------5----||
||--2--------3--|-2---------0-2--|-2--------3--|-2---------0-2--3----||


  Q=148
 7/16
          PM--|           PM--|           PM--|           PM--|
  S S S S S S S   S S S S S S S   S S S S S S S   S S S S S S S
|---------------|---------------|---------------|----------------||
|---------------|---------------|---------------|----------------||
|-6-4-----------|-6-4-----------|-6-4-----------|-6-4------------||
|-----6-4-------|-----6-4-------|-----6-4-------|-----6-4--------||
|---------7-5-4-|---------7-5-4-|---------7-5-4-|---------7-5-4--||
|---------------|---------------|---------------|----------------||
|---------------|---------------|---------------|----------------||


 Guitar Solo
  Q=134
  N.C.(Eb5)
 6/4
  Gtr III
  |------6------|  |-------6--------| |------6-------| |------6------|  |-----6------|  |-----6------|
  S S  S S S    S  S  S  S S S      S S S     S S S  S S S  S S S    S  S  S  S S S  S  S  S  S S S  S
|------------------------------------------------------------------------------------------------------|
|-8h9h11p8h9h==11p=8h=9h11p8h9h====11p8h9h===11p8h9h11p8h9h11p8h9h==11p=8h=9h11p8h9h11p=8h=9h11p8h9h11-|
|------------------------------------------------------------------------------------------------------|
|------------------------------------------------------------------------------------------------------|
|------------------------------------------------------------------------------------------------------|
|------------------------------------------------------------------------------------------------------|
|------------------------------------------------------------------------------------------------------|
|
| Gtrs I, II
| E.         S    +E       S   +E          S    E      E.         S    +E       E      +E       E
|------------------------------------------------------------------------------------------------------|
|------------------------------------------------------------------------------------------------------|
|------------------------------------------------------------------------------------------------------|
|------------------------------------------------------------------------------------------------------|
|------------------------------------------------------------------------------------------------------|
|-----------------------------------------/4-----------3-----------------------------------------------|
|-4----------5----(5)------4---(4)--------------------------------4----(4)------2------(2)------5------|


 7/4
              T                             T                          T                          T                       T                        T
  |------------------6-------------------|  |------------------6------------------|  |----------------6----------------|  |-----------9------------|
  S  S  S  S  S    S  S   S S  S  S      S  S  S      S  S S  S  S  S  S  S  S    S  S   S  S  S  S  S  S   S S  S  S  S  S  S  S  S S    S  S  S  S
|----------------------------------------------------------------------------------------------------------------------------------------------------|
|-9h11h12h14h16p==14p12p=11p9h11h12h====14h16p14p====12p11p9h11h12h14h16p14p12p==11p=9h=11h12h14h16p14p12p=11p9h11h12h14h16p14p12p11p9h==11h12h14h16-|
|----------------------------------------------------------------------------------------------------------------------------------------------------|
|----------------------------------------------------------------------------------------------------------------------------------------------------|
|----------------------------------------------------------------------------------------------------------------------------------------------------|
|----------------------------------------------------------------------------------------------------------------------------------------------------|
|----------------------------------------------------------------------------------------------------------------------------------------------------|
|
| E.            S    +E        S    +E            E.             E.            S    +E         E       +E        E        E            E
|----------------------------------------------------------------------------------------------------------------------------------------------------|
|----------------------------------------------------------------------------------------------------------------------------------------------------|
|----------------------------------------------------------------------------------------------------------------------------------------------------|
|----------------------------------------------------------------------------------------------------------------------------------------------------|
|------------------------------------------------------------------------------------------------------------------------/7------------6-------------|
|------------------------------------------------/7--------------6-----------------------------------------------------------------------------------|
|-4-------------5----(5)-------4----(4)----------------------------------------4----(4)--------2-------(2)-------4-----------------------------------|


 6/4
   T     T        T
   |------------7------------|  |---------7----------| |--------7---------| |------7-------|  |------7-------|  |----6-----|
   S  S  S  T  T  T  T  S    S  S  S S  S   S S      S S S    S  S   S S  S S S S  S S S   S  S  S S S   S S S  S  S S S S S
|----------------------------------------------------------------------------------------------------------------------------|
|-16p14p12h16p14h16p14p12p==11p=9s=8h9h11p==9p8------------------------------------------------------------------------------|
|---------------------------------------------------11p9p8h===9h11p==9p8-----------------------------------------------------|
|------------------------------------------------------------------------11p9p8h9h11p9p8h==9p=8s=6h8h9p==8p6h8p=6p=5h6h8p6p5-|
|----------------------------------------------------------------------------------------------------------------------------|
|----------------------------------------------------------------------------------------------------------------------------|
|----------------------------------------------------------------------------------------------------------------------------|
|
|  E.                     S    +E         S     +E          S      E        E.           S   +E        E       +E      E
|--------------------------------------------------------------------------|
|--------------------------------------------------------------------------|
|--------------------------------------------------------------------------|
|--------------------------------------------------------------------------|
|--------------------------------------------------------------------------|
|---------------------------/4---------------3-----------------------------|
|--4------5----(5)------4-----(4)------4---(4)-------2-------(2)-----5-----|


 7/4
  |-----6-----|  |------6-------| |------6------| |-----6-----|  |----6-----|  |----6-----|  |----6----|
  S S S S S   S  S  S S S S     S S S     S S S S S S S S S   S  S  S S S S S  S  S S S S S  S S S S S S
|--------------------------------------------------------------------------|
|--------------------------------------------------------------------------|
|--------------------------------------------------------------------------|
|--------------------------------------------------------------------------|
|-6p4p2h4h6p==4h=6p=4p---------------------------6--6-6-6-6-6--6-6-6-6-6-6-|
|----------------------6p4p====3h4h6p====4h6p4p3---------------------------|
|----------------------------------------------5p4p2h4h5p==4h=5p=4p2h4-4-4-|
|
| E.        S   +E      S   +E         E.         E.        S   +E      E     +E      E      E     E
|--------------------------------------------------------------------------|
|--------------------------------------------------------------------------|
|--------------------------------------------------------------------------|
|--------------------------------------------------------------------------|
|-------------------------------------------------------------/7-----6-----|
|-------------------------------/7----------6------------------------------|
|-4---------5---(5)-----4---(4)-------4---(4)-----2-----(2)-----4----------|


 6/4
   ~~~                                    ~~~~
   H.                  T  T T T  E       +Q.        E
|--------------------------------------------------11-|
|-------------------------------14b16---(14)----------|
|-----------------------------x-----------------------|
|---------------------------x-------------------------|
|-[6]---------------------x---------------------------|
|----------------------x------------------------------|
|-----------------------------------------------------|
|
|  E. S +E  S +E   S E E.             S  +E  E +E   E
|-----------------------------------------------------|
|-----------------------------------------------------|
|-----------------------------------------------------|
|-----------------------------------------------------|
|-----------------------------------------------------|
|-----------------/4---3------------------------------|
|--4--5-(5)-4-(4)---------------------4--(4)-2-(2)--5-|


 7/4
                                                                                       ~~
   E     S  E         S  S  T   T  S  S   S  S  S   S  S  S  S   S  S  S  S   S  S  S  Q
--11-11-12-11h=12p11-----11-12-15--11-12----11-----------------------------|
|-14b16----14b16-----14------------------14-----12-14-11-12-----11---------|
|------------------------------------------------------------13----13-12---|
|--------------------------------------------------------------------------|
|--------------------------------------------------------------------------|
|--------------------------------------------------------------------------|
|--------------------------------------------------------------------------|
|
|  E.       S    +E      S +E         E.        E.        S +E      E    +E      E     E E
|--------------------------------------------------------------------------|
|--------------------------------------------------------------------------|
|--------------------------------------------------------------------------|
|--------------------------------------------------------------------------|
|---------------------------------------------------------------------/7-6-|
|------------------------------------/7---------6--------------------------|
|--4--------5----(5)-----4-(4)------------4-(4)-----2----(2)-----4---------|


 6/4
   |--------6--------|  |---------6---------|  |--------6--------|  |--------6--------|  |--------6---------|  |-------6-------|
   S   S  S  S  S    S  S   S  S  S  S      S  S  S     S  S  S  S  S   S  S  S  S    S  S   S  S  S  S  T  T  S   S  S  S  S  S
|------------------------------------------------------------------11--12-11----11---12-11---------------------------------11-12---|
|-16--14-12-14-16---14-12---------------------------------11-12-14-----------14-------------14-12-11----11-12-----11-12-14---------|
|--------------------------15-13-12-13-----15-13-12----13--------------------------------------------13-------13-------------------|
|--------------------------------------------------------------------------|
|--------------------------------------------------------------------------|
|--------------------------------------------------------------------------|
|--------------------------------------------------------------------------|
|
|  E.             S    +E         S    +E            S     E        E.             S    +E         E          +E         E
|--------------------------------------------------------------------------|
|--------------------------------------------------------------------------|
|--------------------------------------------------------------------------|
|--------------------------------------------------------------------------|
|--------------------------------------------------------------------------|
|------------------------------------------/4--------------3---------------|
|--4------5----(5)--------4----(4)--------4----(4)-----2-------(2)----5----|


 7/4
                                                                                                                                     ~~~~~
   |--------6--------|  |---------6---------|  |--------6---------|  |--------6--------|  |-------6-------|  |-------6-------|
   S   S  S  S  S    S  S   S  S  S  S      S  S  S      S  S  S  S  S   S  S  S  S    S  S   S  S  S  S  S  S   S  S  S  S  S      +Q
|-15--16-15-12-15---16-15--12---------------------------------12-15-18--16-15-16-18---16-15-----15-16-18-16-15--15-15-18-19-21b23==(21)r----||
|-----------------------------16-14-12-----14-16-14-----12-16--------------------------------17---------------------------------------------||
|-------------------------------------------------------------------------||
|-------------------------------------------------------------------------||
|-------------------------------------------------------------------------||
|-------------------------------------------------------------------------||
|-------------------------------------------------------------------------||
|
|  E.             S    +E         S    +E            E.              E.             S    +E         E       +E         E             E   E
|-------------------------------------------------------------------------||
|-------------------------------------------------------------------------||
|-------------------------------------------------------------------------||
|-------------------------------------------------------------------------||
|-----------------------------------------------------------------/7---6--||
|---------/7---------------6----------------------------------------------||
|--4------------5----(5)--------4----(4)------4----(4)------2----(2)--4---||


  N.C.
 7/16
  Gtrs I, II
          PM--|           PM--|           PM--|
  S S S S S S S   S S S S S S S   S S S S S S S
|---------------|---------------|---------------|
|---------------|---------------|---------------|
|-8-6-----------|-8-6-----------|-8-6-----------|
|-----8-6-------|-----8-6-------|-----8-6-------|
|---------9-7-6-|---------9-7-6-|---------9-7-6-|
|---------------|---------------|---------------|
|---------------|---------------|---------------|


                 3/4
          PM--|
  S S S S S S S   S S S S S E. Q
|---------------|-------------------||
|---------------|-------------------||
|-8-6-----------|-------------------||
|-----8-6-------|-----6-8-----------||
|---------9-7-6-|-7-9-----6---------||
|---------------|-------------------||
|---------------|-------------------||


 Keyboard/Guitar unison
  Q=192
  N.C.
 4/4
  Gtr III
  S S S S S S S S S S S S S S S S   S S S S S S S S S S S S S S S S
|---------------------------------|----------------------------------|
|---------------------------------|----------------------------------|
|---------------------------------|-------5-7-9-7-5------------------|
|-----------------------4-5-7-5-4-|-5-7-9-----------9-7-5-9-7-5---5--|
|-------2-3-5-3-2-3-5-7-----------|-----------------------------9----|
|-2-3-5---------------------------|----------------------------------|
|---------------------------------|----------------------------------|


  S S S S S S S S S S S S S S S S   S S S S S S S S S S S S S S S S
|---------------------------------|---------------------------------|
|---------------------------------|---------------------------------|
|---------------------------------|---------------------------------|
|-------4-5-7-5-4-----------------|---------------------------------|
|-3-5-7-----------7-5-3-7-5-3---3-|-------2-3-5-3-2-----------------|
|-----------------------------7---|-2-3-5-----------5-3-2-5-3-2---2-|
|---------------------------------|-----------------------------5---|


  S S S S S S S S S S S S S S S S   S S S S S S S S  S  S  S  S  S  S  S  S
|---------------------------------|-----------------------------------------|
|---------------------------------|-------------------------10-12-13-12-10-|
|---------------------------------|-------5-7-9-7-5-/9-11-12---------------|
|-----------------------4-5-7-5-4-|-5-7-9----------------------------------|
|-------2-3-5-3-2-3-5-7-----------|----------------------------------------|
|-2-3-5---------------------------|----------------------------------------|
|---------------------------------|----------------------------------------|


   S S S  S S S  S S  S S S S S S S S   S S S S S S S S S S S S S S S S
|-------------------------------------|---------------------------------|
|-------------------------------------|---------------------------------|
|-11-9-7-11-9-7----7------------------|---------------------------------|
|---------------10---10-9-7-5-7-9-7-5-|-4-7-5-4-------------------------|
|-------------------------------------|---------7-5-3-7-5-3---5-3-------|
|-------------------------------------|---------------------7-----7-5-3-|
|-------------------------------------|---------------------------------|


 7/8
  S S S S S S S S S S S S S S   S S S S S S S S S S S S S S
|-----------------------------|-----------------------------|
|-----------------------------|-----------------------------|
|-----------------------------|-----------------------------|
|-----------------------------|-----------------------------|
|-------2-3-5-3-2-------------|-----------------------------|
|-2-3-5-----------5-3-2-5-3-2-|-------5-7-8-7-5-------------|
|-----------------------------|-5-7-8-----------8-7-5-8-7-5-|


  S S S S S S S S S S S S S S
|------------------------------|
|------------------------------|
|------------------------------|
|------------------------------|
|------------------------------|
|-------3-5-7-5-3--------------|
|-3-5-7-----------7-5-3-7-5-3--|


 6/4
  S S S S S S S S S S S S S S S S S S S S S S S S
|-------------------------------------------------|
|-------------------------------------------------|
|-------------------------------------------------|
|---------------------------------------5-7-9-7-5-|
|-----------------------3-5-7-5-3-5-7-9-----------|
|-------2-3-5-3-2-3-5-7---------------------------|
|-1-3-5-------------------------------------------|


 7/8
  S  S S S  S S S S  S S S  S S S
|-----------------------------------|
|-----------------------------------|
|-----------------------------------|
|-9-10-9-7--------------------7-9---|
|----------10-9-7-9-10-7-9-10-------|
|-----------------------------------|
|-----------------------------------|


   S  S  S S  S  S S  S  S S  S  S S  S    S  S  S  S  S  S  S  S  S  S  S  S  S  S
|---------------------------------------|----------------------------------|
|---------------------------------------|----------------------------------|
|---------------------------------------|----------------------------------|
|-10-12-10-9-------------9-10---12-14-12|-10-------------------------10-12-|
|------------12-10-9-12-10-9-10-12------|----14-12-10-14-12-10-12-14-------|
|---------------------------------------|----------------------------------|
|---------------------------------------|----------------------------------|


 4/4
                                       ~~
   S  S  S  S  S  S  S  S  S  S  S  S  Q
|------------------------------------------|
|------------------------------------------|
|------------------------------------------|
|-16-17-16-14------------------------------|
|-------------17-15-14-17-15-14------------|
|-------------------------------17-15-14---|
|------------------------------------------|


   S  S S  S  S S  S  S  S  S S  S  S S  S  S
|---------------------------------------------|
|---------------------------------------------|
|---------------------------------------------|
|---------------9-10-12-12-10-9---------------|
|-12-10-9-10-12-----------------12-10-9-10-12-|
|---------------------------------------------|
|---------------------------------------------|


   S  S  S  S  S  S  S  S  S  S  S  S  S  S  S  S
|-------------------------------------------------|
|-------------------------------------------------|
|-------------------------------------------------|
|----------------------10-12-10-------------------|
|-14-12-10----10-12-14----------14-12-10----10-12-|
|----------14----------------------------14-------|
|-------------------------------------------------|


   S  S  S  S  S  S  S  S  S  S  S  S  S  S  S  S
|-------------------------------------------------|
|-------------------------------------------------|
|-------------------------------------------------|
|-------------------------------------------------|
|-14-12-10----10-12-14-12-10----10-12-14-12-10----|
|----------14----------------14----------------14-|
|-------------------------------------------------|


                                       ~~
   S  S  S  S  S  S  S  S  S  S  S  S  Q
|-----------------------------------------|
|-----------------------------------------|
|-----------------------------------------|
|----------10-12-10-----------------------|
|-10-12-14----------14-12-10----10-12-14--|
|----------------------------14-----------|
|-----------------------------------------|


   S  S  S  S  S  S  S  S  S  S  S  S  E  S  S
|----------------------------------------------|
|-------------------12-13-15-13-12-------------|
|-16-14-12----12-14----------------14-12-12-14-|
|----------16----------------------------------|
|----------------------------------------------|
|----------------------------------------------|
|----------------------------------------------|


   S  S  S  S  S  S  S  S  S  S  S  S  S  S  S  S
|--------------------------------------------------|
|-------------------12-13-15-13-12-----------------|
|-16-14-12----12-14----------------14-12-11-12-14--|
|----------16--------------------------------------|
|--------------------------------------------------|
|--------------------------------------------------|
|--------------------------------------------------|


   S  S  S  S  S  S  S  S  S  S  S  S  S  S  S  S
|-------------------------------------------------|
|-------------------------------------------------|
|-16-14-12----12-14-16-14-12----12-14-16-14-12----|
|----------16----------------16----------------16-|
|-------------------------------------------------|
|-------------------------------------------------|
|-------------------------------------------------|


                                       ~~
   S  S  S  S  S  S  S  S  S  S  S  S  Q
|-----------------------------------------|
|-------12-13-15-13-12--------------------|
|-12-14----------------14-12----12-14-16--|
|----------------------------16-----------|
|-----------------------------------------|
|-----------------------------------------|
|-----------------------------------------|


  S S  S S S  S S S S  S  S S  S  S  S S
|----------------------------------------|
|----------------------------------------|
|---------------------------9-11-12-11-9-|
|--------7-9-10-9-7-9-10-12--------------|
|-7-9-10---------------------------------|
|----------------------------------------|
|----------------------------------------|


 5/4
   S  S  S  S  S  S  S  S  S  S  S  S  S  S  S  S  S  S  S  S
|----------------------------------14-15-17-15-14----------20-|
|----------12-13-15-13-12-13-15-17----------------20-22-24----|
|-11-12-14----------------------------------------------------|
|-------------------------------------------------------------|
|-------------------------------------------------------------|
|-------------------------------------------------------------|
|-------------------------------------------------------------|


 4/4
   S  S  S  S  S  S  S  S  S  S  S  S  S  S  S  S
|-22-24-22-20-------------------------------------|
|-------------24-22-20-24-22-20-19-22-20-19----19-|
|-------------------------------------------21----|
|-------------------------------------------------|
|-------------------------------------------------|
|-------------------------------------------------|
|-------------------------------------------------|


   S  S  S  S  S  S  S  S  S  S  S  S  S  S  S  S
|-15-17-15-14--------------------------------------|
|-------------17-15-13-17-15-13-12-15-13-12----12--|
|-------------------------------------------14-----|
|--------------------------------------------------|
|--------------------------------------------------|
|--------------------------------------------------|
|--------------------------------------------------|


   S  S  S  S  S  S  S  S  S  S  S  S  S  S  S  S
|-------------------------------------------------|
|-13-15-13-12-------------------------------------|
|-------------14-12-11-14-12-11----12-11----------|
|-------------------------------14-------14-12-14-|
|-------------------------------------------------|
|-------------------------------------------------|
|-------------------------------------------------|


   S  S  S S  S  S S  S  S S  S  S S  S  S S
|--------------------------------------------|
|--------------------------------------------|
|-11-12-11-9---------------------------------|
|------------12-10-9-12-10-9----10-9---------|
|----------------------------12------12-10-9-|
|--------------------------------------------|
|--------------------------------------------|


  S S  S S S  S S S S  S  S S  S  S  S S
|----------------------------------------|
|----------------------------------------|
|---------------------------9-11-12-11-9-|
|--------7-9-10-9-7-9-10-12--------------|
|-7-9-10---------------------------------|
|----------------------------------------|
|----------------------------------------|


 5/4
   S  S  S  S  S  S  S  S  S  S  S  S  S  S  S  S  S  S  S  S
|----------------------------------14-15-17-15-14----------20-|
|----------12-13-15-13-12-13-15-17----------------20-22-24----|
|-11-12-14----------------------------------------------------|
|-------------------------------------------------------------|
|-------------------------------------------------------------|
|-------------------------------------------------------------|
|-------------------------------------------------------------|


 7/8
   S  S  S  S  S  S  S  S  S  S  S  S  S  S    S  S  S  S  S  S  S  S  S  S  S  S  S  S
|-22-24-22-20----------------------------19-|-20-22-20-19------------------|
|-------------24-22-20-24-22-20-19-20-22----|-------------22-20-19-22-20-19|
|------------------------------|-------------------------------21----------|
|------------------------------|-------------------------------------------|
|------------------------------|-------------------------------------------|
|------------------------------|-------------------------------------------|
|------------------------------|-------------------------------------------|


   S  S  S  S  S  S  S  S  S  S  S  S  S  S
|-19-20-19-17--------------------------------|
|-------------20-19-17-20-19-17----17-19-20--|
|-------------------------------19-----------|
|--------------------------------------------|
|--------------------------------------------|
|--------------------------------------------|
|--------------------------------------------|


   S  S  S  S  S  S  S  S  S  S  S  S  S  S    S  S  S  S  S  S  S  S  S  S  S  S  S  S
|-17-19-17-15------------------|-15-17-15-14-------------------------------|
|-------------19-17-15-19-17-15----15-17-19-|17-15-13-17-15-13----13-15-17-|
|-------------------------------17----------|------------------16----------|
|-------------------------------------------|------------------------------|
|-------------------------------------------|------------------------------|
|-------------------------------------------|------------------------------|
|-------------------------------------------|------------------------------|


 4/4
   S  S  S  S  S  S  S  S  S  S  S  S  E  S  S
|-14-15-14-12----------------------------------|
|-------------15-13-12-15-13-12----12----------|
|-------------------------------14----14-14-14-|
|----------------------------------------------|
|----------------------------------------------|
|----------------------------------------------|
|----------------------------------------------|


   S  S  S  S  S  S S  S  S S  S  S S  S  S  S
|----------------------------------------------|
|-12-13-12-10----------------------------------|
|-------------12-11-9-12-11-9----11-9----------|
|-----------------------------12------12-10-12-|
|----------------------------------------------|
|----------------------------------------------|
|----------------------------------------------|


  S  S S S  S S S  S S S  S S S  S S  S
|---------------------------------------|
|---------------------------------------|
|-9-11-9-7------------------------------|
|----------10-9-7-10-9-7----9-7---------|
|------------------------10-----10-9-10-|
|---------------------------------------|
|---------------------------------------|


  S S S S S S S S S S S S S S S S   S S S S S S S S S S S S S S S S
|---------------------------------|---------------------------------|
|---------------------------------|---------------------------------|
|---------------------------------|---------------------------------|
|-7-9-7-5-------------------------|---------------------------------|
|---------9-7-5-9-7-5---7-5-------|---------------------------------|
|---------------------8-----8-5-7-|-7-8-7-5---------------2---------|
|---------------------------------|---------8-7-5-8-7-5-3---5-3-1-3-|


                                  G
  S S S S S S S S S S S S S S S S
|---------------------------------|
|---------------------------------|
|---------------------------------|
|---------------------------------|
|---------------------------------|
|-2-3-2-----------2-3-2-----------|
|-------5-3-1-3-5-------5-3-1-0-1-|


  Q=172
  N.C.(B5)
 trs I, II                                         Gtr I
  PM------------------|      PM------------------|
  S S S S E S S +S  S E Q    S S S S E S S +S  S E Q
|--------------------------|----------------------------*|
|--------------------------|----------------------------*|
|--------------------------|----------------------------*|
|--------------------------|-----------------------5----*|
|--------------------------|-----------------------4----*|
|--------------------------|----------------------------*|
|-0-0-0-0-0-0-0-(0)-0-0----|-0-0-0-0-0-0-0-(0)-0-0------*|

Enjoy.
Comments