Dream Theater - These Walls Chords & Tabs

 

These Walls Chords & Tabs

Dream Theater Chords & Tabs

Version: 1 Type: Bass Tab 0 ratings
1 star 2 stars 3 stars 4 stars 5 stars
comments

These Walls Bass Tab

   
Band- Dream Theater
Song- These Walls

Gtr I (A D G C F A#) - 'Bass'

 Pre-Intro
  Q=185
 6/4
  Gtr I
  Wx4
|--------|
|--------|
|--------|
|--------|
|--------|
|--------|


   Intro
    E E E E E E E E E E E E   E E E E E E E E E E E E
||--------------------------|-------------------------|
||o-------------------------|-------------------------|
||--------------------------|-------------------------|
||--------------------------|-------------------------|
||o-------------------------|-------------------------|
||--0-0-0-0-0-0-0-0-0-0-0-0-|-3-3-3-3-3-3-3-3-3-3-3-3-|


  E E E E E E E E E E E E   E E E E E E E E E E E E
|-------------------------|---------------------------|
|-------------------------|---------------------------|
|-------------------------|---------------------------|
|-------------------------|---------------------------|
|-3-3-3-3-3-3-3-3-3-3-3-3-|-3-3-3-3-3-3-5-5-5-5-5-5---|
|-------------------------|---------------------------|


  1.
  E E E E E E E E E E E E   E E E E E E E E E E E E
|-------------------------|-------------------------|
|-------------------------|-------------------------|
|-------------------------|-------------------------|
|-------------------------|-------------------------|
|-------------------------|-------------------------|
|-0-0-0-0-0-0-0-0-0-0-0-0-|-3-3-3-3-3-3-3-3-3-3-3-3-|


  E E E E E E E E E E E E   E E E E E E E E E E E E
|-------------------------|-----------------------------||
|-------------------------|----------------------------o||
|-------------------------|-----------------------------||
|-------------------------|-----------------------------||
|-0-0-0-0-0-0-0-0-0-0-0-0-|-0-0-0-0-0-0-2-2-2-2-2-2----o||
|-------------------------|-----------------------------||


  2.
  E E E E E E E E E E E E   E E E E E E E E E E E E
|-------------------------|-------------------------|
|-------------------------|-------------------------|
|-------------------------|-------------------------|
|-------------------------|-------------------------|
|-0-0-0-0-0-0-0-0-0-0-0-0-|-0-0-0-0-0-0-0-0-0-0-0-0-|
|-------------------------|-------------------------|


  E E E E E E E E E E E E   E E E E E E H     Q
|-------------------------|------------------------|
|-------------------------|------------------------|
|-------------------------|------------------------|
|-------------------------|------------------------|
|-3-3-3-3-3-3-3-3-3-3-3-3-|-3-3-3-3-3-3-5\---------|
|-------------------------|------------------------|


 Pre-Verse
                                                   5/4
  W.              +W.              +W.              W
|---------------|----------------|----------------|------|
|---------------|----------------|----------------|------|
|---------------|----------------|----------------|------|
|---------------|----------------|----------------|------|
|-7-------------|-(7)------------|-(7)------------|------|
|---------------|----------------|----------------|------|


 6/4              5/4
  Wx3              W
|----------------|------|
|----------------|------|
|----------------|------|
|----------------|------|
|----------------|------|
|----------------|------|


   Verse
   6/4
    Q.   Q.   Q  Q  E E   Q.   Q.   Q  Q  E E
||----------------------|---------------------|
||o---------------------|---------------------|
||------------------7h9-|-----------------7h9-|
||----------------------|---------------------|
||o-7----7----7--7------|-7----7----7--7------|
||----------------------|---------------------|


                       5/4
  Q.   Q.   Q  Q  E E   Q.   Q.   Q  Q
|---------------------|-----------------|
|---------------------|-----------------|
|-----------9-----7h9-|-----------------|
|---------------------|-----------5--7--|
|-7----7-------7------|-7----7----------|
|---------------------|-----------------|


 6/4
  Q.   Q.   Q  Q  E E   Q.   Q.   H.
|---------------------|-------------------|
|---------------------|-------------------|
|-----------------7h9-|-----------9\------|
|---------------------|-------------------|
|-7----7----7--7------|-7----7------------|
|---------------------|-------------------|


                      1.                  2.
                      5/4                 6/4
  Q.   Q.   Q  Q  Q    Q.   Q.   Q  Q      Q.   Q.   Q  Q  Q
|--------------------|------------------||----------------------|
|--------------------|-----------------o||----------------------|
|--------------5-----|------------------||----------------------|
|-----------5-----5--|------------------||----------------------|
|-3----3-------------|-3----3----5--5--o||-3----3----5--5--5----|
|--------------------|------------------||----------------------|


 Pre-Chorus
  Q  E E E E Q  E E E E   Q  E E E E Q  E E E E
|-----------------------|-----------------------|
|-----------------------|-----------------------|
|-----------------------|-----------------------|
|-----------------------|-0--0-0-0-0-0--0-0-0-0-|
|-3--3-3-3-3-3--3-3-3-3-|-----------------------|
|-----------------------|-----------------------|


  Q  E E E E Q  E E E E   Q  E E E E Q  E E E E
|-----------------------|--------------------------|
|-----------------------|--------------------------|
|-----------------------|--------------------------|
|-2--2-2-2-2-2--2-2-2-2-|-2--2-2-2-2-2--2-2-2-2----|
|-----------------------|--------------------------|
|-----------------------|--------------------------|


  Q  E E E E Q  E E E E   Q  E E E E Q  E E E E
|-----------------------|-----------------------|
|-----------------------|-----------------------|
|-----------------------|-----------------------|
|-----------------------|-0--0-0-0-0-0--0-0-0-0-|
|-3--3-3-3-3-3--3-3-3-3-|-----------------------|
|-----------------------|-----------------------|


  Q  E E E E Q  E E E E   Q  E E E E Q.   Q.
|-----------------------|-----------------------|
|-----------------------|-----------------------|
|-----------------------|-----------------------|
|-----------------------|-----------------------|
|-0--0-0-0-0-0--0-0-0-0-|-0--0-0-0-0-0----------|
|-----------------------|-----------------------|


   Chorus
    $
    E E E E E E E E E E E E   E E E E E E E E E E E E
||--------------------------|-------------------------|
||o-------------------------|-------------------------|
||--------------------------|-------------------------|
||--------------------------|-------------------------|
||o-------------------------|-------------------------|
||--0-0-0-0-0-0-0-0-0-0-0-0-|-3-3-3-3-3-3-3-3-3-3-3-3-|


  E E E E E E E E E E E E   E E E E E E E E E E E E
|-------------------------|---------------------------|
|-------------------------|---------------------------|
|-------------------------|---------------------------|
|-------------------------|---------------------------|
|-3-3-3-3-3-3-3-3-3-3-3-3-|-3-3-3-3-3-3-5-5-5-5-5-5---|
|-------------------------|---------------------------|


  1.
  E E E E E E E E E E E E   E E E E E E E E E E E E
|-------------------------|-------------------------|
|-------------------------|-------------------------|
|-------------------------|-------------------------|
|-------------------------|-------------------------|
|-------------------------|-------------------------|
|-0-0-0-0-0-0-0-0-0-0-0-0-|-3-3-3-3-3-3-3-3-3-3-3-3-|


  E E E E E E E E E E E E   E E E E E E E E E E E E
|-------------------------|-----------------------------||
|-------------------------|----------------------------o||
|-------------------------|-----------------------------||
|-------------------------|-----------------------------||
|-0-0-0-0-0-0-0-0-0-0-0-0-|-0-0-0-0-0-0-2-2-2-2-2-2----o||
|-------------------------|-----------------------------||


  2.
                                           To Coda
  E E E E E E E E E E E E   E E E E E E E E E E E E
|-------------------------|-------------------------|
|-------------------------|-------------------------|
|-------------------------|-------------------------|
|-------------------------|-------------------------|
|-0-0-0-0-0-0-0-0-0-0-0-0-|-0-0-0-0-0-0-0-0-0-0-0-0-|
|-------------------------|-------------------------|


  E E E E E E E E E E E E   E E E E E E H     Q
|-------------------------|------------------------|
|-------------------------|------------------------|
|-------------------------|------------------------|
|-------------------------|------------------------|
|-3-3-3-3-3-3-3-3-3-3-3-3-|-3-3-3-3-3-3-5\---------|
|-------------------------|------------------------|


 Pre-Verse
  Q.   Q.   Q  Q  E E   Q.   Q.   Q  Q  E E
|---------------------|---------------------|
|---------------------|---------------------|
|-----------------7h9-|-----------------7h9-|
|---------------------|---------------------|
|-7----7----7--7------|-7----7----7--7------|
|---------------------|---------------------|


                       5/4
  Q.   Q.   Q  Q  E E   Q.   Q.   Q  Q
|---------------------|-------------------|
|---------------------|-------------------|
|-----------9-----7h9-|-------------------|
|---------------------|-----------5--7----|
|-7----7-------7------|-7----7------------|
|---------------------|-------------------|


 6/4
  Q.   Q.   Q  Q  E E   Q.   Q.   H.
|---------------------|-------------------|
|---------------------|-------------------|
|-----------------7h9-|-----------9\------|
|---------------------|-------------------|
|-7----7----7--7------|-7----7------------|
|---------------------|-------------------|


                      5/4
  Q.   Q.   Q  Q  Q    Q.   Q.   Q  Q
|--------------------|------------------|
|--------------------|------------------|
|--------------5-----|------------------|
|-----------5-----5--|------------------|
|-3----3-------------|-3----3----5--5---|
|--------------------|------------------|


   Verse
   6/4
    Q.   Q.   Q  Q  E E   Q.   Q.   Q  Q  E E
||----------------------|---------------------|
||o---------------------|---------------------|
||------------9-----7h9-|-----------------7h9-|
||----------------------|---------------------|
||o-7----7-------7------|-7----7----7--7------|
||----------------------|---------------------|


                       5/4
  Q.   Q.   Q  Q  E E   Q.   Q.   Q  Q
|---------------------|-----------------|
|---------------------|-----------------|
|-----------9-----7h9-|-----------------|
|---------------------|-----------5--7--|
|-7----7-------7------|-7----7----------|
|---------------------|-----------------|


 6/4
  Q.   Q.   Q  Q  E E   Q.   Q  E H.
|---------------------|-------------------|
|---------------------|-------------------|
|-----------9-----7h9-|-----------9\------|
|---------------------|---------9---------|
|-7----7-------7------|-7----7------------|
|---------------------|-------------------|


                      1.                  2.
                      5/4                 6/4
  Q.   Q.   Q  Q  Q    Q.   Q.   Q  Q      Q.   Q.   Q  Q  Q
|--------------------|------------------||----------------------|
|--------------------|-----------------o||----------------------|
|--------------5-----|------------------||----------------------|
|-----------5-----5--|------------------||----------------------|
|-3----3-------------|-3----3----5--5--o||-3----3----5--5--5----|
|--------------------|------------------||----------------------|


 Pre-Chorus
  Q  E E E E Q  E E E E   Q  E E E E Q  E E E E
|-----------------------|-----------------------|
|-----------------------|-----------------------|
|-----------------------|-----------------------|
|-----------------------|-0--0-0-0-0-0--0-0-0-0-|
|-3--3-3-3-3-3--3-3-3-3-|-----------------------|
|-----------------------|-----------------------|


  Q  E E E E Q  E E E E   Q  E E E E Q  E E E E
|-----------------------|--------------------------|
|-----------------------|--------------------------|
|-----------------------|--------------------------|
|-2--2-2-2-2-2--2-2-2-2-|-2--2-2-2-2-2--2-2-2-2----|
|-----------------------|--------------------------|
|-----------------------|--------------------------|


  Q  E E E E Q  E E E E   Q  E E E E Q  E E E E
|-----------------------|-----------------------|
|-----------------------|-----------------------|
|-----------------------|-----------------------|
|-----------------------|-0--0-0-0-0-0--0-0-0-0-|
|-3--3-3-3-3-3--3-3-3-3-|-----------------------|
|-----------------------|-----------------------|


                              D.S. al Coda
  Q  E E E E Q  E E E E   Q  E E E E Q.   Q.
|-----------------------|-----------------------|
|-----------------------|-----------------------|
|-----------------------|-----------------------|
|-----------------------|-----------------------|
|-0--0-0-0-0-0--0-0-0-0-|-0--0-0-0-0-0----------|
|-----------------------|-----------------------|


  &
  E E E E E E E E E E E E   E E E E E E E E E E E E
|-------------------------|-------------------------|
|-------------------------|-------------------------|
|-------------------------|-------------------------|
|-------------------------|-------------------------|
|-3-3-3-3-3-3-3-3-3-3-3-3-|-3-3-3-3-3-3-5-5-5-5-5-5-|
|-------------------------|-------------------------|


   Bridge
   5/4                                         6/4
    E E E E E E E E E E   E E E E E E E E E E   E E E E E E E E E E S S E
||----------------------|---------------------|---------------------------|
||o---------------------|---------------------|---------------------------|
||----------------------|---------------------|---------------------------|
||----------------------|---------------------|---------------------------|
||o-0-0-0-0-0-0-0-0-0-0-|-3-3-3-3-3-3-3-3-3-3-|-------------7-----------5-|
||----------------------|---------------------|-0-0---0---0---0---0-5h7---|

[ Tab from: http://www.guitartabs.cc/tabs/d/dream_theater/these_walls_btab.html ]
                     1.
 5/4
  E E E E E E Q  Q    E E E E E E E E E E   E E E E E E E E E E
|-------------------|---------------------|---------------------|
|-------------------|---------------------|---------------------|
|-------------------|---------------------|---------------------|
|-------------------|---------------------|---------------------|
|-------------7--7--|-0-0-0-0-0-0-0-0-0-0-|-3-3-3-3-3-3-3-3-3-3-|
|-0-0---0---0-------|---------------------|---------------------|


 6/4
  E E E E E E E E E E S S E   E E E E E E Q  Q  Q
|---------------------------|-----------------------||
|---------------------------|----------------------o||
|---------------------------|-----------------------||
|---------------------------|-----------------------||
|-------------7-----------5-|-------------7--7--7--o||
|-0-0---0---0---0---0-5h7---|-0-0---0---0-----------||


  2.
  E E E E E E E E E E E E   E E E E E E E E E E E E
|-------------------------|-------------------------|
|-------------------------|-------------------------|
|-------------------------|-------------------------|
|-------------------------|-------------------------|
|-0-0-0-0-0-0-0-0-0-0-0-0-|-0-0-0-0-0-0-0-0-0-0-0-0-|
|-------------------------|-------------------------|


  E E E E E E E E E E E E   E E E E E E E E +Q    Q
|-------------------------|----------------------------|
|-------------------------|----------------------------|
|-------------------------|----------------------------|
|-------------------------|----------------------------|
|-3-3-3-3-3-3-3-3-3-3-3-3-|-3-3-3-3-3-3-5-5-(5)\-------|
|-------------------------|----------------------------|


   Guitar Solo
    Q.   Q.   Q  Q  E E   Q.   Q.   Q  Q  E E
||----------------------|---------------------|
||o---------------------|---------------------|
||------------9-----7h9-|-----------------7h9-|
||----------------------|---------------------|
||o-7----7-------7------|-7----7----7--7------|
||----------------------|---------------------|


                       5/4
  Q.   Q.   Q  Q  E E   Q.   Q.   Q  Q
|---------------------|-------------------|
|---------------------|-------------------|
|-----------9-----7h9-|-------------------|
|---------------------|-----------5--7----|
|-7----7-------7------|-7----7------------|
|---------------------|-------------------|


 6/4
  Q.   Q.   Q  Q  E E   Q.   Q  E H.
|---------------------|-------------------|
|---------------------|-------------------|
|-----------9-----7h9-|-----------9\------|
|---------------------|---------9---------|
|-7----7-------7------|-7----7------------|
|---------------------|-------------------|


                      1.                  2.
                      5/4                 6/4
  Q.   Q.   Q  Q  Q    Q.   Q.   Q  Q      Q.   Q.   Q  Q  Q
|--------------------|------------------||----------------------|
|--------------------|-----------------o||----------------------|
|--------------5-----|------------------||----------------------|
|-----------5-----5--|------------------||----------------------|
|-3----3-------------|-3----3----5--5--o||-3----3----5--5--5----|
|--------------------|------------------||----------------------|


 Pre-Chorus
  Q  E E E E Q  E E E E   Q  E E E E Q  E E E E
|-----------------------|-----------------------|
|-----------------------|-----------------------|
|-----------------------|-----------------------|
|-----------------------|-0--0-0-0-0-0--0-0-0-0-|
|-3--3-3-3-3-3--3-3-3-3-|-----------------------|
|-----------------------|-----------------------|


  Q  E E E E Q  E E E E   Q  E E E E Q  E E E E
|-----------------------|--------------------------|
|-----------------------|--------------------------|
|-----------------------|--------------------------|
|-2--2-2-2-2-2--2-2-2-2-|-2--2-2-2-2-2--2-2-2-2----|
|-----------------------|--------------------------|
|-----------------------|--------------------------|


  Q  E E E E Q  E E E E   Q  E E E E Q  E E E E
|-----------------------|-----------------------|
|-----------------------|-----------------------|
|-----------------------|-----------------------|
|-----------------------|-0--0-0-0-0-0--0-0-0-0-|
|-3--3-3-3-3-3--3-3-3-3-|-----------------------|
|-----------------------|-----------------------|


  Q  E E E E Q  E E E E   Q  E E E E Q.   Q.
|-----------------------|-----------------------|
|-----------------------|-----------------------|
|-----------------------|-----------------------|
|-----------------------|-----------------------|
|-0--0-0-0-0-0--0-0-0-0-|-0--0-0-0-0-0----------|
|-----------------------|-----------------------|


   Chorus
    E E E E E E E E E E E E   E E E E E E E E E E E E
||--------------------------|-------------------------|
||o-------------------------|-------------------------|
||--------------------------|-------------------------|
||--------------------------|-------------------------|
||o-------------------------|-------------------------|
||--0-0-0-0-0-0-0-0-0-0-0-0-|-3-3-3-3-3-3-3-3-3-3-3-3-|


  E E E E E E E E E E E E   E E E E E E E E E E E E
|-------------------------|---------------------------|
|-------------------------|---------------------------|
|-------------------------|---------------------------|
|-------------------------|---------------------------|
|-3-3-3-3-3-3-3-3-3-3-3-3-|-3-3-3-3-3-3-5-5-5-5-5-5---|

|-------------------------|---------------------------|


  1.
  E E E E E E E E E E E E   E E E E E E E E E E E E
|-------------------------|-------------------------|
|-------------------------|-------------------------|
|-------------------------|-------------------------|
|-------------------------|-------------------------|
|-------------------------|-------------------------|
|-0-0-0-0-0-0-0-0-0-0-0-0-|-3-3-3-3-3-3-3-3-3-3-3-3-|


  E E E E E E E E E E E E   E E E E E E E E E E E E
|-------------------------|-----------------------------||
|-------------------------|----------------------------o||
|-------------------------|-----------------------------||
|-------------------------|-----------------------------||
|-0-0-0-0-0-0-0-0-0-0-0-0-|-0-0-0-0-0-0-2-2-2-2-2-2----o||
|-------------------------|-----------------------------||


  2.
  E E E E E E E E E E E E   E E E E E E E E E E E E
|-------------------------|-------------------------|
|-------------------------|-------------------------|
|-------------------------|-------------------------|
|-------------------------|-------------------------|
|-0-0-0-0-0-0-0-0-0-0-0-0-|-0-0-0-0-0-0-0-0-0-0-0-0-|
|-------------------------|-------------------------|


  E E E E E E E E E E E E   E E E E E E E E E E E E
|-------------------------|----------------------------|
|-------------------------|----------------------------|
|-------------------------|----------------------------|
|-------------------------|----------------------------|
|-3-3-3-3-3-3-3-3-3-3-3-3-|-3-3-3-3-3-3-5-5-5-5-5-5----|
|-------------------------|----------------------------|


   Outro
    E E E E E E E E E E E E   E E E E E E E E E E E E
||--------------------------|-------------------------|
||o-------------------------|-------------------------|
||--------------------------|-------------------------|
||--------------------------|-------------------------|
||o-------------------------|-------------------------|
||--0-0-0-0-0-0-0-0-0-0-0-0-|-3-3-3-3-3-3-3-3-3-3-3-3-|


  E E E E E E E E E E E E   E E E E E E E E E E E E
|-------------------------|---------------------------|
|-------------------------|---------------------------|
|-------------------------|---------------------------|
|-------------------------|---------------------------|
|-3-3-3-3-3-3-3-3-3-3-3-3-|-3-3-3-3-3-3-5-5-5-5-5-5---|
|-------------------------|---------------------------|


  1.
  E E E E E E E E E E E E   E E E E E E E E E E E E
|-------------------------|-------------------------|
|-------------------------|-------------------------|
|-------------------------|-------------------------|
|-------------------------|-------------------------|
|-------------------------|-------------------------|
|-0-0-0-0-0-0-0-0-0-0-0-0-|-3-3-3-3-3-3-3-3-3-3-3-3-|


  E E E E E E E E E E E E   E E E E E E E E E E E E
|-------------------------|-----------------------------||
|-------------------------|----------------------------o||
|-------------------------|-----------------------------||
|-------------------------|-----------------------------||
|-0-0-0-0-0-0-0-0-0-0-0-0-|-0-0-0-0-0-0-2-2-2-2-2-2----o||
|-------------------------|-----------------------------||


  2.
  E E E E E E E E E E E E   E E E E E E E E E E E E
|-------------------------|-------------------------|
|-------------------------|-------------------------|
|-------------------------|-------------------------|
|-------------------------|-------------------------|
|-0-0-0-0-0-0-0-0-0-0-0-0-|-0-0-0-0-0-0-0-0-0-0-0-0-|
|-------------------------|-------------------------|


  E E E E E E E E E E E E   E E E E E E E E E E E E
|-------------------------|----------------------------|
|-------------------------|----------------------------|
|-------------------------|----------------------------|
|-------------------------|----------------------------|
|-3-3-3-3-3-3-3-3-3-3-3-3-|-3-3-3-3-3-3-5-5-5-5-5-5----|
|-------------------------|----------------------------|


    E E E E E E E E E E E E   E E E E E E E E E E E E
||--------------------------|-------------------------|
||o-------------------------|-------------------------|
||--------------------------|-------------------------|
||--------------------------|-------------------------|
||o-------------7-----------|-------------5-----------|
||--0-0---0---0---0---0---0-|-0-0---0---0---0---0---0-|


  E E E E E E E E E E E E   E E E E E E E E E E E E
|-------------------------|---------------------------|
|-------------------------|---------------------------|
|-------------------------|---------------------------|
|-------------------------|---------------------------|
|-------------3-----------|-------------2---------2---|
|-0-0---0---0---0---0---0-|-0-0---0---0---0---0-3-----|


  1.
  E E E E E E E E E E E E   E E E E E E E E E E E E
|-------------------------|-------------------------|
|-------------------------|-------------------------|
|-------------------------|-------------------------|
|-------------------------|-------------------------|
|-------------7-----------|-------------5-----------|
|-0-0---0---0---0---0---0-|-0-0---0---0---0---0---0-|


  E E E E E E E E E E E E   E E E E E E S  S S S  S S S S  S S S  S
|-------------------------|-------------------------------------------||
|-------------------------|------------------------------------------o||
|-------------------------|-------------------------------------------||
|-------------------------|-------------9-10-9-7-------------7-9-10---||
|-------------3-----------|----------------------10-9-7-9-10---------o||
|-0-0---0---0---0---0---0-|-0-0---0---0-------------------------------||


  2.
  E E E E E E E E E E E E   E E E E E E E E E E E E
|-------------------------|-------------------------|
|-------------------------|-------------------------|
|-------------------------|-------------------------|
|-------------------------|-------------------------|
|-------------7-----------|-------------5-----------|
|-0-0---0---0---0---0---0-|-0-0---0---0---0---0---0-|


  E E E E E E E E E E E E   E E E E E E Q  Q  Q
|-------------------------|------------------------*|
|-------------------------|------------------------*|
|-------------------------|------------------------*|
|-------------------------|------------------------*|
|-------------3-----------|-------------0--0--0----*|
|-0-0---0---0---0---0---0-|-0-0---0---0------------*|



Duration Legend
---------------
W - whole; H - half; Q - quarter; E - 8th; S - 16th; T - 32nd; X - 64th; a - acciaccatura
+ - note tied to previous; . - note dotted; .. - note double dotted
Uncapitalized letters represent notes that are staccato (1/2 duration)
Irregular groupings are notated above the duration line
Duration letters will always appear directly above the note/fret number it represents the
duration for.  Duration letters with no fret number below them represent rests.  Multi-
bar rests are notated in the form Wxn, where n is the number of bars to rest for.  Low
melody durations appear below the staff

Tablature Legend
----------------
 h   - hammer-on
 p   - pull-off
 b   - bend
 pb  - pre-bend
 r   - bend release (if no number after the r, then release immediately)
 /\  - slide into or out of (from/to "nowhere")
 s   - legato slide
 S   - shift slide
 - natural harmonic
[n]  - artificial harmonic
n(n) - tapped harmonic
 ~   - vibrato
 tr  - trill
 T   - tap
 TP  - trem. picking
 PM  - palm muting
\n/  - tremolo bar dip; n = amount to dip
 \n  - tremolo bar down
 n/  - tremolo bar up
/n\  - tremolo bar inverted dip
 =   - hold bend; also acts as connecting device for hammers/pulls
 <> - volume swell (louder/softer)
 x   - on rhythm slash represents muted slash
 o   - on rhythm slash represents single note slash

Misc Legend
-----------
 |  - bar
||  - double bar
||o - repeat start
o|| - repeat end
*|  - double bar (ending)
 :  - bar (freetime)
 $  - Segno
 &  - Coda
Tempo markers -  = BPM(8/16=s8/s16), where s8 = swing 8ths, s16 = swing 16ths
Comments